  0
SECTION
  2
HEADER
  9
$ACADVER
  1
AC1015
  9
$ACADMAINTVER
 70
     6
  9
$DWGCODEPAGE
  3
ANSI_1254
  9
$INSBASE
 10
0.0
 20
0.0
 30
0.0
  9
$EXTMIN
 10
0.0
 20
0.0
 30
0.0
  9
$EXTMAX
 10
279.4
 20
215.9
 30
0.0
  9
$LIMMIN
 10
0.0
 20
0.0
  9
$LIMMAX
 10
279.4
 20
215.9
  9
$ORTHOMODE
 70
     0
  9
$REGENMODE
 70
     1
  9
$FILLMODE
 70
     1
  9
$QTEXTMODE
 70
     0
  9
$MIRRTEXT
 70
     1
  9
$LTSCALE
 40
1.0
  9
$ATTMODE
 70
     1
  9
$TEXTSIZE
 40
3.5
  9
$TRACEWID
 40
1.0
  9
$TEXTSTYLE
  7
Standard
  9
$CLAYER
  8
0
  9
$CELTYPE
  6
ByLayer
  9
$CECOLOR
 62
   256
  9
$CELTSCALE
 40
1.0
  9
$DISPSILH
 70
     0
  9
$DIMSCALE
 40
1.0
  9
$DIMASZ
 40
3.5
  9
$DIMEXO
 40
1.0
  9
$DIMDLI
 40
3.75
  9
$DIMRND
 40
0.0
  9
$DIMDLE
 40
0.0
  9
$DIMEXE
 40
1.0
  9
$DIMTP
 40
0.0
  9
$DIMTM
 40
0.0
  9
$DIMTXT
 40
3.5
  9
$DIMCEN
 40
2.5
  9
$DIMTSZ
 40
0.0
  9
$DIMTOL
 70
     0
  9
$DIMLIM
 70
     0
  9
$DIMTIH
 70
     1
  9
$DIMTOH
 70
     1
  9
$DIMSE1
 70
     0
  9
$DIMSE2
 70
     0
  9
$DIMTAD
 70
     1
  9
$DIMZIN
 70
     0
  9
$DIMBLK
  1

  9
$DIMASO
 70
     1
  9
$DIMSHO
 70
     1
  9
$DIMPOST
  1

  9
$DIMAPOST
  1

  9
$DIMALT
 70
     0
  9
$DIMALTD
 70
     3
  9
$DIMALTF
 40
0.0393700787
  9
$DIMLFAC
 40
1.0
  9
$DIMTOFL
 70
     1
  9
$DIMTVP
 40
0.0
  9
$DIMTIX
 70
     0
  9
$DIMSOXD
 70
     0
  9
$DIMSAH
 70
     0
  9
$DIMBLK1
  1

  9
$DIMBLK2
  1

  9
$DIMSTYLE
  2
ISO-25
  9
$DIMCLRD
 70
     0
  9
$DIMCLRE
 70
     0
  9
$DIMCLRT
 70
     0
  9
$DIMTFAC
 40
1.0
  9
$DIMGAP
 40
1.524
  9
$DIMJUST
 70
     0
  9
$DIMSD1
 70
     0
  9
$DIMSD2
 70
     0
  9
$DIMTOLJ
 70
     0
  9
$DIMTZIN
 70
     0
  9
$DIMALTZ
 70
     0
  9
$DIMALTTZ
 70
     0
  9
$DIMUPT
 70
     0
  9
$DIMDEC
 70
     2
  9
$DIMTDEC
 70
     2
  9
$DIMALTU
 70
     2
  9
$DIMALTTD
 70
     3
  9
$DIMTXSTY
  7
Standard
  9
$DIMAUNIT
 70
     0
  9
$DIMADEC
 70
     2
  9
$DIMALTRND
 40
0.0
  9
$DIMAZIN
 70
     0
  9
$DIMDSEP
 70
    44
  9
$DIMATFIT
 70
     3
  9
$DIMFRAC
 70
     0
  9
$DIMLDRBLK
  1

  9
$DIMLUNIT
 70
     2
  9
$DIMLWD
 70
    -2
  9
$DIMLWE
 70
    -2
  9
$DIMTMOVE
 70
     0
  9
$LUNITS
 70
     2
  9
$LUPREC
 70
     2
  9
$SKETCHINC
 40
1.0
  9
$FILLETRAD
 40
10.0
  9
$AUNITS
 70
     0
  9
$AUPREC
 70
     2
  9
$MENU
  1
.
  9
$ELEVATION
 40
0.0
  9
$PELEVATION
 40
0.0
  9
$THICKNESS
 40
0.0
  9
$LIMCHECK
 70
     0
  9
$CHAMFERA
 40
0.0
  9
$CHAMFERB
 40
0.0
  9
$CHAMFERC
 40
0.0
  9
$CHAMFERD
 40
0.0
  9
$SKPOLY
 70
     0
  9
$TDCREATE
 40
2459741.592511771
  9
$TDUCREATE
 40
2459741.467511771
  9
$TDUPDATE
 40
2459741.592514097
  9
$TDUUPDATE
 40
2459741.467514097
  9
$TDINDWG
 40
0.0000000116
  9
$TDUSRTIMER
 40
0.0000000116
  9
$USRTIMER
 70
     1
  9
$ANGBASE
 50
0.0
  9
$ANGDIR
 70
     0
  9
$PDMODE
 70
     0
  9
$PDSIZE
 40
-1.0
  9
$PLINEWID
 40
0.0
  9
$SPLFRAME
 70
     0
  9
$SPLINETYPE
 70
     6
  9
$SPLINESEGS
 70
     8
  9
$HANDSEED
  5
1C8
  9
$SURFTAB1
 70
     6
  9
$SURFTAB2
 70
     6
  9
$SURFTYPE
 70
     6
  9
$SURFU
 70
     6
  9
$SURFV
 70
     6
  9
$UCSBASE
  2

  9
$UCSNAME
  2

  9
$UCSORG
 10
0.0
 20
0.0
 30
0.0
  9
$UCSXDIR
 10
1.0
 20
0.0
 30
0.0
  9
$UCSYDIR
 10
0.0
 20
1.0
 30
0.0
  9
$UCSORTHOREF
  2

  9
$UCSORTHOVIEW
 70
     0
  9
$UCSORGTOP
 10
0.0
 20
0.0
 30
0.0
  9
$UCSORGBOTTOM
 10
0.0
 20
0.0
 30
0.0
  9
$UCSORGLEFT
 10
0.0
 20
0.0
 30
0.0
  9
$UCSORGRIGHT
 10
0.0
 20
0.0
 30
0.0
  9
$UCSORGFRONT
 10
0.0
 20
0.0
 30
0.0
  9
$UCSORGBACK
 10
0.0
 20
0.0
 30
0.0
  9
$PUCSBASE
  2

  9
$PUCSNAME
  2

  9
$PUCSORG
 10
0.0
 20
0.0
 30
0.0
  9
$PUCSXDIR
 10
1.0
 20
0.0
 30
0.0
  9
$PUCSYDIR
 10
0.0
 20
1.0
 30
0.0
  9
$PUCSORTHOREF
  2

  9
$PUCSORTHOVIEW
 70
     0
  9
$PUCSORGTOP
 10
0.0
 20
0.0
 30
0.0
  9
$PUCSORGBOTTOM
 10
0.0
 20
0.0
 30
0.0
  9
$PUCSORGLEFT
 10
0.0
 20
0.0
 30
0.0
  9
$PUCSORGRIGHT
 10
0.0
 20
0.0
 30
0.0
  9
$PUCSORGFRONT
 10
0.0
 20
0.0
 30
0.0
  9
$PUCSORGBACK
 10
0.0
 20
0.0
 30
0.0
  9
$USERI1
 70
     0
  9
$USERI2
 70
     0
  9
$USERI3
 70
     0
  9
$USERI4
 70
     0
  9
$USERI5
 70
     0
  9
$USERR1
 40
0.0
  9
$USERR2
 40
0.0
  9
$USERR3
 40
0.0
  9
$USERR4
 40
0.0
  9
$USERR5
 40
0.0
  9
$WORLDVIEW
 70
     1
  9
$SHADEDGE
 70
     3
  9
$SHADEDIF
 70
    70
  9
$TILEMODE
 70
     1
  9
$MAXACTVP
 70
    64
  9
$PINSBASE
 10
0.0
 20
0.0
 30
0.0
  9
$PLIMCHECK
 70
     0
  9
$PEXTMIN
 10
1.0000000000E+20
 20
1.0000000000E+20
 30
1.0000000000E+20
  9
$PEXTMAX
 10
-1.0000000000E+20
 20
-1.0000000000E+20
 30
-1.0000000000E+20
  9
$PLIMMIN
 10
0.0
 20
0.0
  9
$PLIMMAX
 10
420.0
 20
297.0
  9
$UNITMODE
 70
     0
  9
$VISRETAIN
 70
     1
  9
$PLINEGEN
 70
     0
  9
$PSLTSCALE
 70
     1
  9
$TREEDEPTH
 70
  3020
  9
$CMLSTYLE
  2
Standard
  9
$CMLJUST
 70
     0
  9
$CMLSCALE
 40
20.0
  9
$PROXYGRAPHICS
 70
     1
  9
$MEASUREMENT
 70
     1
  9
$CELWEIGHT
370
    -1
  9
$ENDCAPS
280
     0
  9
$JOINSTYLE
280
     0
  9
$LWDISPLAY
290
     1
  9
$INSUNITS
 70
     4
  9
$HYPERLINKBASE
  1

  9
$STYLESHEET
  1

  9
$XEDIT
290
     1
  9
$CEPSNTYPE
380
     0
  9
$PSTYLEMODE
290
     1
  9
$FINGERPRINTGUID
  2
{2a13612f-f45b-4092-af5e-a03fec54e841}
  9
$VERSIONGUID
  2
{FAEB1C32-E019-11D5-929B-00C0DF256EC4}
  9
$EXTNAMES
290
     1
  9
$PSVPSCALE
 40
0.0
  9
$OLESTARTUP
290
     0
  0
ENDSEC
  0
SECTION
  2
CLASSES
  0
CLASS
  1
ACDBDICTIONARYWDFLT
  2
AcDbDictionaryWithDefault
  3
ObjectDBX Classes
 90
        0
280
     0
281
     0
  0
CLASS
  1
VISUALSTYLE
  2
AcDbVisualStyle
  3
ObjectDBX Classes
 90
     4095
280
     0
281
     0
  0
CLASS
  1
MATERIAL
  2
AcDbMaterial
  3
ObjectDBX Classes
 90
     1153
280
     0
281
     0
  0
CLASS
  1
SCALE
  2
AcDbScale
  3
ObjectDBX Classes
 90
     1153
280
     0
281
     0
  0
CLASS
  1
TABLESTYLE
  2
AcDbTableStyle
  3
ObjectDBX Classes
 90
     4095
280
     0
281
     0
  0
CLASS
  1
MLEADERSTYLE
  2
AcDbMLeaderStyle
  3
ACDB_MLEADERSTYLE_CLASS
 90
     4095
280
     0
281
     0
  0
CLASS
  1
SUN
  2
AcDbSun
  3
SCENEOE
 90
     1153
280
     0
281
     0
  0
CLASS
  1
ACDBPLACEHOLDER
  2
AcDbPlaceHolder
  3
ObjectDBX Classes
 90
        0
280
     0
281
     0
  0
CLASS
  1
LAYOUT
  2
AcDbLayout
  3
ObjectDBX Classes
 90
        0
280
     0
281
     0
  0
ENDSEC
  0
SECTION
  2
TABLES
  0
TABLE
  2
VPORT
  5
8
330
0
100
AcDbSymbolTable
 70
     1
  0
VPORT
  5
29
330
8
100
AcDbSymbolTableRecord
100
AcDbViewportTableRecord
  2
*Active
 70
     0
 10
0.0
 20
0.0
 11
1.0
 21
1.0
 12
139.7
 22
107.95
 13
0.0
 23
0.0
 14
10.0
 24
10.0
 15
10.0
 25
10.0
 16
0.0
 26
0.0
 36
1.0
 17
0.0
 27
0.0
 37
0.0
 40
215.9
 41
1.2941176471
 42
50.0
 43
0.0
 44
0.0
 50
0.0
 51
0.0
 71
     0
 72
  2000
 73
     1
 74
     3
 75
     0
 76
     0
 77
     0
 78
     0
281
     0
 65
     1
110
0.0
120
0.0
130
0.0
111
1.0
121
0.0
131
0.0
112
0.0
122
1.0
132
0.0
 79
     0
146
0.0
  0
ENDTAB
  0
TABLE
  2
LTYPE
  5
5
330
0
100
AcDbSymbolTable
 70
     6
  0
LTYPE
  5
14
330
5
100
AcDbSymbolTableRecord
100
AcDbLinetypeTableRecord
  2
ByBlock
 70
     0
  3

 72
    65
 73
     0
 40
0.0
  0
LTYPE
  5
15
330
5
100
AcDbSymbolTableRecord
100
AcDbLinetypeTableRecord
  2
ByLayer
 70
     0
  3

 72
    65
 73
     0
 40
0.0
  0
LTYPE
  5
16
330
5
100
AcDbSymbolTableRecord
100
AcDbLinetypeTableRecord
  2
Continuous
 70
     0
  3
Solid line
 72
    65
 73
     0
 40
0.0
  0
LTYPE
  5
6E
330
5
100
AcDbSymbolTableRecord
100
AcDbLinetypeTableRecord
  2
HIDDEN
 70
     0
  3
Hidden __ __ __ __ __ __ __ __ __ __ __ __ __ __
 72
    65
 73
     2
 40
1.905
 49
1.27
 74
     0
 49
-0.635
 74
     0
  0
LTYPE
  5
6F
330
5
100
AcDbSymbolTableRecord
100
AcDbLinetypeTableRecord
  2
PHANTOM
 70
     0
  3
Phantom ______  __  __  ______  __  __  ______
 72
    65
 73
     6
 40
12.7
 49
6.35
 74
     0
 49
-1.27
 74
     0
 49
1.27
 74
     0
 49
-1.27
 74
     0
 49
1.27
 74
     0
 49
-1.27
 74
     0
  0
LTYPE
  5
70
330
5
100
AcDbSymbolTableRecord
100
AcDbLinetypeTableRecord
  2
CENTER
 70
     0
  3
Center ____ _ ____ _ ____ _ ____ _ ____ _ ____
 72
    65
 73
     4
 40
10.16
 49
6.35
 74
     0
 49
-1.27
 74
     0
 49
1.27
 74
     0
 49
-1.27
 74
     0
  0
LTYPE
  5
71
330
5
100
AcDbSymbolTableRecord
100
AcDbLinetypeTableRecord
  2
CENTERX2
 70
     0
  3
Center (2x) ________  __  ________  __  _____
 72
    65
 73
     4
 40
20.32
 49
12.7
 74
     0
 49
-2.54
 74
     0
 49
2.54
 74
     0
 49
-2.54
 74
     0
  0
LTYPE
  5
72
330
5
100
AcDbSymbolTableRecord
100
AcDbLinetypeTableRecord
  2
DOT2
 70
     0
  3
Dot (.5x) ........................................
 72
    65
 73
     2
 40
0.635
 49
0.0
 74
     0
 49
-0.635
 74
     0
  0
ENDTAB
  0
TABLE
  2
LAYER
  5
2
330
0
100
AcDbSymbolTable
 70
    17
  0
LAYER
  5
10
330
2
100
AcDbSymbolTableRecord
100
AcDbLayerTableRecord
  2
0
 70
     0
 62
     7
  6
Continuous
370
    -3
390
F
  0
LAYER
  5
73
330
2
100
AcDbSymbolTableRecord
100
AcDbLayerTableRecord
  2
FORMAT
 70
     0
 62
     7
  6
Continuous
370
    -3
390
F
  0
LAYER
  5
74
330
2
100
AcDbSymbolTableRecord
100
AcDbLayerTableRecord
  2
YARDIMCI_GEOMETRI
 70
     0
 62
    -6
  6
Continuous
290
     0
370
    -3
390
F
  0
LAYER
  5
75
330
2
100
AcDbSymbolTableRecord
100
AcDbLayerTableRecord
  2
SAYFA_CERCEVESI
 70
     0
 62
     7
  6
Continuous
370
    25
390
F
  0
LAYER
  5
76
330
2
100
AcDbSymbolTableRecord
100
AcDbLayerTableRecord
  2
ANTET
 70
     0
 62
     7
  6
Continuous
370
    -3
390
F
  0
LAYER
  5
77
330
2
100
AcDbSymbolTableRecord
100
AcDbLayerTableRecord
  2
OLCU
 70
     0
 62
   150
  6
Continuous
370
    -3
390
F
  0
LAYER
  5
78
330
2
100
AcDbSymbolTableRecord
100
AcDbLayerTableRecord
  2
METIN
 70
     0
 62
    96
  6
Continuous
370
    -3
390
F
  0
LAYER
  5
79
330
2
100
AcDbSymbolTableRecord
100
AcDbLayerTableRecord
  2
BALON
 70
     0
 62
     5
  6
Continuous
370
    -3
390
F
  0
LAYER
  5
7A
330
2
100
AcDbSymbolTableRecord
100
AcDbLayerTableRecord
  2
VURGU
 70
     0
 62
     7
  6
Continuous
370
    -3
390
F
  0
LAYER
  5
7B
330
2
100
AcDbSymbolTableRecord
100
AcDbLayerTableRecord
  2
SILIK
 70
     0
 62
     7
  6
Continuous
370
    -3
390
F
  0
LAYER
  5
7C
330
2
100
AcDbSymbolTableRecord
100
AcDbLayerTableRecord
  2
MODEL
 70
     0
 62
     7
  6
Continuous
370
    -3
390
F
  0
LAYER
  5
7D
330
2
100
AcDbSymbolTableRecord
100
AcDbLayerTableRecord
  2
DETAYLANDıRMA
 70
     0
 62
   190
  6
Continuous
370
    -3
390
F
  0
LAYER
  5
7E
330
2
100
AcDbSymbolTableRecord
100
AcDbLayerTableRecord
  2
TOLERANS
 70
     0
 62
   230
  6
Continuous
370
    -3
390
F
  0
LAYER
  5
7F
330
2
100
AcDbSymbolTableRecord
100
AcDbLayerTableRecord
  2
MERKEZ_CIZGILERI
 70
     0
 62
    30
  6
Continuous
370
    -3
390
F
  0
LAYER
  5
80
330
2
100
AcDbSymbolTableRecord
100
AcDbLayerTableRecord
  2
KESIT-DETAY_CIZGILERI
 70
     0
 62
     7
  6
Continuous
370
    -3
390
F
  0
LAYER
  5
81
330
2
100
AcDbSymbolTableRecord
100
AcDbLayerTableRecord
  2
\U+041E\U+0421\U+0415\U+0412\U+042B\U+0415
 70
     0
 62
     7
  6
Continuous
370
    -3
390
F
  0
LAYER
  5
82
330
2
100
AcDbSymbolTableRecord
100
AcDbLayerTableRecord
  2
\U+0412\U+041E\U+0414\U+042F\U+041D\U+042B\U+0415_\U+0417\U+041D\U+0410\U+041A\U+0418
 70
     0
 62
    11
  6
Continuous
370
    -3
390
F
  0
ENDTAB
  0
TABLE
  2
STYLE
  5
3
330
0
100
AcDbSymbolTable
 70
     1
  0
STYLE
  5
11
330
3
100
AcDbSymbolTableRecord
100
AcDbTextStyleTableRecord
  2
Standard
 70
     0
 40
0.0
 41
1.0
 50
0.0
 71
     0
 42
3.5
  3
txt
  4

  0
ENDTAB
  0
TABLE
  2
VIEW
  5
6
330
0
100
AcDbSymbolTable
 70
     0
  0
ENDTAB
  0
TABLE
  2
UCS
  5
7
330
0
100
AcDbSymbolTable
 70
     0
  0
ENDTAB
  0
TABLE
  2
APPID
  5
9
330
0
100
AcDbSymbolTable
 70
     1
  0
APPID
  5
12
330
9
100
AcDbSymbolTableRecord
100
AcDbRegAppTableRecord
  2
ACAD
 70
     0
  0
ENDTAB
  0
TABLE
  2
DIMSTYLE
  5
A
330
0
100
AcDbSymbolTable
 70
     1
100
AcDbDimStyleTable
  0
DIMSTYLE
105
27
330
A
100
AcDbSymbolTableRecord
100
AcDbDimStyleTableRecord
  2
ISO-25
 70
     0
 41
2.5
 42
0.625
 43
3.75
 44
1.25
 73
     0
 74
     0
 77
     1
 78
     8
140
2.5
141
2.5
143
0.0393700787
147
0.625
171
     3
172
     1
178
     0
271
     2
272
     2
274
     3
278
    44
283
     0
284
     8
340
11
  0
ENDTAB
  0
TABLE
  2
BLOCK_RECORD
  5
1
330
0
100
AcDbSymbolTable
 70
    14
  0
BLOCK_RECORD
  5
1F
330
1
100
AcDbSymbolTableRecord
100
AcDbBlockTableRecord
  2
*Model_Space
340
22
  0
BLOCK_RECORD
  5
1B
330
1
100
AcDbSymbolTableRecord
100
AcDbBlockTableRecord
  2
*Paper_Space
340
1E
  0
BLOCK_RECORD
  5
23
330
1
100
AcDbSymbolTableRecord
100
AcDbBlockTableRecord
  2
*Paper_Space0
340
26
  0
BLOCK_RECORD
  5
9F
330
1
100
AcDbSymbolTableRecord
100
AcDbBlockTableRecord
  2
SW_CENTERMARKSYMBOL_0
340
0
102
{BLKREFS
331
AA
102
}
  0
BLOCK_RECORD
  5
AB
330
1
100
AcDbSymbolTableRecord
100
AcDbBlockTableRecord
  2
SW_CENTERMARKSYMBOL_1
340
0
102
{BLKREFS
331
B6
102
}
  0
BLOCK_RECORD
  5
B7
330
1
100
AcDbSymbolTableRecord
100
AcDbBlockTableRecord
  2
SW_CENTERMARKSYMBOL_2
340
0
102
{BLKREFS
331
C2
102
}
  0
BLOCK_RECORD
  5
C3
330
1
100
AcDbSymbolTableRecord
100
AcDbBlockTableRecord
  2
SW_CENTERMARKSYMBOL_3
340
0
102
{BLKREFS
331
CE
102
}
  0
BLOCK_RECORD
  5
CF
330
1
100
AcDbSymbolTableRecord
100
AcDbBlockTableRecord
  2
SW_CENTERMARKSYMBOL_4
340
0
102
{BLKREFS
331
DA
102
}
  0
BLOCK_RECORD
  5
DB
330
1
100
AcDbSymbolTableRecord
100
AcDbBlockTableRecord
  2
SW_CENTERMARKSYMBOL_5
340
0
102
{BLKREFS
331
E6
102
}
  0
BLOCK_RECORD
  5
E7
330
1
100
AcDbSymbolTableRecord
100
AcDbBlockTableRecord
  2
SW_CENTERMARKSYMBOL_6
340
0
102
{BLKREFS
331
F2
102
}
  0
BLOCK_RECORD
  5
F3
330
1
100
AcDbSymbolTableRecord
100
AcDbBlockTableRecord
  2
SW_CENTERMARKSYMBOL_7
340
0
102
{BLKREFS
331
FE
102
}
  0
BLOCK_RECORD
  5
FF
330
1
100
AcDbSymbolTableRecord
100
AcDbBlockTableRecord
  2
SW_CENTERMARKSYMBOL_8
340
0
102
{BLKREFS
331
10A
102
}
  0
BLOCK_RECORD
  5
10B
330
1
100
AcDbSymbolTableRecord
100
AcDbBlockTableRecord
  2
SW_CENTERMARKSYMBOL_9
340
0
102
{BLKREFS
331
116
102
}
  0
BLOCK_RECORD
  5
117
330
1
100
AcDbSymbolTableRecord
100
AcDbBlockTableRecord
  2
SW_CENTERMARKSYMBOL_10
340
0
102
{BLKREFS
331
122
102
}
  0
BLOCK_RECORD
  5
123
330
1
100
AcDbSymbolTableRecord
100
AcDbBlockTableRecord
  2
SW_CENTERMARKSYMBOL_11
340
0
102
{BLKREFS
331
12E
102
}
  0
BLOCK_RECORD
  5
12F
330
1
100
AcDbSymbolTableRecord
100
AcDbBlockTableRecord
  2
SW_CENTERMARKSYMBOL_12
340
0
102
{BLKREFS
331
13A
102
}
  0
ENDTAB
  0
ENDSEC
  0
SECTION
  2
BLOCKS
  0
BLOCK
  5
20
330
1F
100
AcDbEntity
  8
0
100
AcDbBlockBegin
  2
*Model_Space
 70
     0
 10
0.0
 20
0.0
 30
0.0
  3
*Model_Space
  1

  0
ENDBLK
  5
21
330
1F
100
AcDbEntity
  8
0
100
AcDbBlockEnd
  0
BLOCK
  5
1C
330
1B
100
AcDbEntity
 67
     1
  8
0
100
AcDbBlockBegin
  2
*Paper_Space
 70
     0
 10
0.0
 20
0.0
 30
0.0
  3
*Paper_Space
  1

  0
ENDBLK
  5
1D
330
1B
100
AcDbEntity
 67
     1
  8
0
100
AcDbBlockEnd
  0
BLOCK
  5
24
330
23
100
AcDbEntity
  8
0
100
AcDbBlockBegin
  2
*Paper_Space0
 70
     0
 10
0.0
 20
0.0
 30
0.0
  3
*Paper_Space0
  1

  0
ENDBLK
  5
25
330
23
100
AcDbEntity
  8
0
100
AcDbBlockEnd
  0
BLOCK
  5
A0
330
9F
100
AcDbEntity
  8
0
100
AcDbBlockBegin
  2
SW_CENTERMARKSYMBOL_0
 70
     0
 10
0.0
 20
0.0
 30
0.0
  3
SW_CENTERMARKSYMBOL_0
  1

  0
LINE
  5
A2
330
9F
100
AcDbEntity
  8
FORMAT
 62
     0
100
AcDbLine
 10
0.0
 20
0.0
 30
0.0
 11
0.0
 21
2.5
 31
0.0
  0
LINE
  5
A3
330
9F
100
AcDbEntity
  8
FORMAT
 62
     0
100
AcDbLine
 10
0.0
 20
0.0
 30
0.0
 11
-2.5
 21
0.0
 31
0.0
  0
LINE
  5
A4
330
9F
100
AcDbEntity
  8
FORMAT
 62
     0
100
AcDbLine
 10
0.0
 20
0.0
 30
0.0
 11
0.0
 21
-2.5
 31
0.0
  0
LINE
  5
A5
330
9F
100
AcDbEntity
  8
FORMAT
 62
     0
100
AcDbLine
 10
0.0
 20
0.0
 30
0.0
 11
2.5
 21
0.0
 31
0.0
  0
LINE
  5
A6
330
9F
100
AcDbEntity
  8
FORMAT
 62
     0
100
AcDbLine
 10
0.0
 20
5.0
 30
0.0
 11
0.0
 21
172.5
 31
0.0
  0
LINE
  5
A7
330
9F
100
AcDbEntity
  8
FORMAT
 62
     0
100
AcDbLine
 10
-5.0
 20
0.0
 30
0.0
 11
-172.5
 21
0.0
 31
0.0
  0
LINE
  5
A8
330
9F
100
AcDbEntity
  8
FORMAT
 62
     0
100
AcDbLine
 10
0.0
 20
-5.0
 30
0.0
 11
0.0
 21
-172.5
 31
0.0
  0
LINE
  5
A9
330
9F
100
AcDbEntity
  8
FORMAT
 62
     0
100
AcDbLine
 10
5.0
 20
0.0
 30
0.0
 11
172.5
 21
0.0
 31
0.0
  0
ENDBLK
  5
A1
330
9F
100
AcDbEntity
  8
0
100
AcDbBlockEnd
  0
BLOCK
  5
AC
330
AB
100
AcDbEntity
  8
0
100
AcDbBlockBegin
  2
SW_CENTERMARKSYMBOL_1
 70
     0
 10
0.0
 20
0.0
 30
0.0
  3
SW_CENTERMARKSYMBOL_1
  1

  0
LINE
  5
AE
330
AB
100
AcDbEntity
  8
FORMAT
 62
     0
100
AcDbLine
 10
0.0
 20
0.0
 30
0.0
 11
0.0
 21
2.5
 31
0.0
  0
LINE
  5
AF
330
AB
100
AcDbEntity
  8
FORMAT
 62
     0
100
AcDbLine
 10
0.0
 20
0.0
 30
0.0
 11
-2.5
 21
0.0
 31
0.0
  0
LINE
  5
B0
330
AB
100
AcDbEntity
  8
FORMAT
 62
     0
100
AcDbLine
 10
0.0
 20
0.0
 30
0.0
 11
0.0
 21
-2.5
 31
0.0
  0
LINE
  5
B1
330
AB
100
AcDbEntity
  8
FORMAT
 62
     0
100
AcDbLine
 10
0.0
 20
0.0
 30
0.0
 11
2.5
 21
0.0
 31
0.0
  0
LINE
  5
B2
330
AB
100
AcDbEntity
  8
FORMAT
 62
     0
100
AcDbLine
 10
0.0
 20
5.0
 30
0.0
 11
0.0
 21
13.5
 31
0.0
  0
LINE
  5
B3
330
AB
100
AcDbEntity
  8
FORMAT
 62
     0
100
AcDbLine
 10
-5.0
 20
0.0
 30
0.0
 11
-13.5
 21
0.0
 31
0.0
  0
LINE
  5
B4
330
AB
100
AcDbEntity
  8
FORMAT
 62
     0
100
AcDbLine
 10
0.0
 20
-5.0
 30
0.0
 11
0.0
 21
-13.5
 31
0.0
  0
LINE
  5
B5
330
AB
100
AcDbEntity
  8
FORMAT
 62
     0
100
AcDbLine
 10
5.0
 20
0.0
 30
0.0
 11
13.5
 21
0.0
 31
0.0
  0
ENDBLK
  5
AD
330
AB
100
AcDbEntity
  8
0
100
AcDbBlockEnd
  0
BLOCK
  5
B8
330
B7
100
AcDbEntity
  8
0
100
AcDbBlockBegin
  2
SW_CENTERMARKSYMBOL_2
 70
     0
 10
0.0
 20
0.0
 30
0.0
  3
SW_CENTERMARKSYMBOL_2
  1

  0
LINE
  5
BA
330
B7
100
AcDbEntity
  8
FORMAT
 62
     0
100
AcDbLine
 10
0.0
 20
0.0
 30
0.0
 11
0.0
 21
2.5
 31
0.0
  0
LINE
  5
BB
330
B7
100
AcDbEntity
  8
FORMAT
 62
     0
100
AcDbLine
 10
0.0
 20
0.0
 30
0.0
 11
-2.5
 21
0.0
 31
0.0
  0
LINE
  5
BC
330
B7
100
AcDbEntity
  8
FORMAT
 62
     0
100
AcDbLine
 10
0.0
 20
0.0
 30
0.0
 11
0.0
 21
-2.5
 31
0.0
  0
LINE
  5
BD
330
B7
100
AcDbEntity
  8
FORMAT
 62
     0
100
AcDbLine
 10
0.0
 20
0.0
 30
0.0
 11
2.5
 21
0.0
 31
0.0
  0
LINE
  5
BE
330
B7
100
AcDbEntity
  8
FORMAT
 62
     0
100
AcDbLine
 10
0.0
 20
5.0
 30
0.0
 11
0.0
 21
13.5
 31
0.0
  0
LINE
  5
BF
330
B7
100
AcDbEntity
  8
FORMAT
 62
     0
100
AcDbLine
 10
-5.0
 20
0.0
 30
0.0
 11
-13.5
 21
0.0
 31
0.0
  0
LINE
  5
C0
330
B7
100
AcDbEntity
  8
FORMAT
 62
     0
100
AcDbLine
 10
0.0
 20
-5.0
 30
0.0
 11
0.0
 21
-13.5
 31
0.0
  0
LINE
  5
C1
330
B7
100
AcDbEntity
  8
FORMAT
 62
     0
100
AcDbLine
 10
5.0
 20
0.0
 30
0.0
 11
13.5
 21
0.0
 31
0.0
  0
ENDBLK
  5
B9
330
B7
100
AcDbEntity
  8
0
100
AcDbBlockEnd
  0
BLOCK
  5
C4
330
C3
100
AcDbEntity
  8
0
100
AcDbBlockBegin
  2
SW_CENTERMARKSYMBOL_3
 70
     0
 10
0.0
 20
0.0
 30
0.0
  3
SW_CENTERMARKSYMBOL_3
  1

  0
LINE
  5
C6
330
C3
100
AcDbEntity
  8
FORMAT
 62
     0
100
AcDbLine
 10
0.0
 20
0.0
 30
0.0
 11
0.0
 21
2.5
 31
0.0
  0
LINE
  5
C7
330
C3
100
AcDbEntity
  8
FORMAT
 62
     0
100
AcDbLine
 10
0.0
 20
0.0
 30
0.0
 11
-2.5
 21
0.0
 31
0.0
  0
LINE
  5
C8
330
C3
100
AcDbEntity
  8
FORMAT
 62
     0
100
AcDbLine
 10
0.0
 20
0.0
 30
0.0
 11
0.0
 21
-2.5
 31
0.0
  0
LINE
  5
C9
330
C3
100
AcDbEntity
  8
FORMAT
 62
     0
100
AcDbLine
 10
0.0
 20
0.0
 30
0.0
 11
2.5
 21
0.0
 31
0.0
  0
LINE
  5
CA
330
C3
100
AcDbEntity
  8
FORMAT
 62
     0
100
AcDbLine
 10
0.0
 20
5.0
 30
0.0
 11
0.0
 21
13.5
 31
0.0
  0
LINE
  5
CB
330
C3
100
AcDbEntity
  8
FORMAT
 62
     0
100
AcDbLine
 10
-5.0
 20
0.0
 30
0.0
 11
-13.5
 21
0.0
 31
0.0
  0
LINE
  5
CC
330
C3
100
AcDbEntity
  8
FORMAT
 62
     0
100
AcDbLine
 10
0.0
 20
-5.0
 30
0.0
 11
0.0
 21
-13.5
 31
0.0
  0
LINE
  5
CD
330
C3
100
AcDbEntity
  8
FORMAT
 62
     0
100
AcDbLine
 10
5.0
 20
0.0
 30
0.0
 11
13.5
 21
0.0
 31
0.0
  0
ENDBLK
  5
C5
330
C3
100
AcDbEntity
  8
0
100
AcDbBlockEnd
  0
BLOCK
  5
D0
330
CF
100
AcDbEntity
  8
0
100
AcDbBlockBegin
  2
SW_CENTERMARKSYMBOL_4
 70
     0
 10
0.0
 20
0.0
 30
0.0
  3
SW_CENTERMARKSYMBOL_4
  1

  0
LINE
  5
D2
330
CF
100
AcDbEntity
  8
FORMAT
 62
     0
100
AcDbLine
 10
0.0
 20
0.0
 30
0.0
 11
0.0
 21
2.5
 31
0.0
  0
LINE
  5
D3
330
CF
100
AcDbEntity
  8
FORMAT
 62
     0
100
AcDbLine
 10
0.0
 20
0.0
 30
0.0
 11
-2.5
 21
0.0
 31
0.0
  0
LINE
  5
D4
330
CF
100
AcDbEntity
  8
FORMAT
 62
     0
100
AcDbLine
 10
0.0
 20
0.0
 30
0.0
 11
0.0
 21
-2.5
 31
0.0
  0
LINE
  5
D5
330
CF
100
AcDbEntity
  8
FORMAT
 62
     0
100
AcDbLine
 10
0.0
 20
0.0
 30
0.0
 11
2.5
 21
0.0
 31
0.0
  0
LINE
  5
D6
330
CF
100
AcDbEntity
  8
FORMAT
 62
     0
100
AcDbLine
 10
0.0
 20
5.0
 30
0.0
 11
0.0
 21
13.5
 31
0.0
  0
LINE
  5
D7
330
CF
100
AcDbEntity
  8
FORMAT
 62
     0
100
AcDbLine
 10
-5.0
 20
0.0
 30
0.0
 11
-13.5
 21
0.0
 31
0.0
  0
LINE
  5
D8
330
CF
100
AcDbEntity
  8
FORMAT
 62
     0
100
AcDbLine
 10
0.0
 20
-5.0
 30
0.0
 11
0.0
 21
-13.5
 31
0.0
  0
LINE
  5
D9
330
CF
100
AcDbEntity
  8
FORMAT
 62
     0
100
AcDbLine
 10
5.0
 20
0.0
 30
0.0
 11
13.5
 21
0.0
 31
0.0
  0
ENDBLK
  5
D1
330
CF
100
AcDbEntity
  8
0
100
AcDbBlockEnd
  0
BLOCK
  5
DC
330
DB
100
AcDbEntity
  8
0
100
AcDbBlockBegin
  2
SW_CENTERMARKSYMBOL_5
 70
     0
 10
0.0
 20
0.0
 30
0.0
  3
SW_CENTERMARKSYMBOL_5
  1

  0
LINE
  5
DE
330
DB
100
AcDbEntity
  8
FORMAT
 62
     0
100
AcDbLine
 10
0.0
 20
0.0
 30
0.0
 11
0.0
 21
2.5
 31
0.0
  0
LINE
  5
DF
330
DB
100
AcDbEntity
  8
FORMAT
 62
     0
100
AcDbLine
 10
0.0
 20
0.0
 30
0.0
 11
-2.5
 21
0.0
 31
0.0
  0
LINE
  5
E0
330
DB
100
AcDbEntity
  8
FORMAT
 62
     0
100
AcDbLine
 10
0.0
 20
0.0
 30
0.0
 11
0.0
 21
-2.5
 31
0.0
  0
LINE
  5
E1
330
DB
100
AcDbEntity
  8
FORMAT
 62
     0
100
AcDbLine
 10
0.0
 20
0.0
 30
0.0
 11
2.5
 21
0.0
 31
0.0
  0
LINE
  5
E2
330
DB
100
AcDbEntity
  8
FORMAT
 62
     0
100
AcDbLine
 10
0.0
 20
5.0
 30
0.0
 11
0.0
 21
14.5
 31
0.0
  0
LINE
  5
E3
330
DB
100
AcDbEntity
  8
FORMAT
 62
     0
100
AcDbLine
 10
-5.0
 20
0.0
 30
0.0
 11
-14.5
 21
0.0
 31
0.0
  0
LINE
  5
E4
330
DB
100
AcDbEntity
  8
FORMAT
 62
     0
100
AcDbLine
 10
0.0
 20
-5.0
 30
0.0
 11
0.0
 21
-14.5
 31
0.0
  0
LINE
  5
E5
330
DB
100
AcDbEntity
  8
FORMAT
 62
     0
100
AcDbLine
 10
5.0
 20
0.0
 30
0.0
 11
14.5
 21
0.0
 31
0.0
  0
ENDBLK
  5
DD
330
DB
100
AcDbEntity
  8
0
100
AcDbBlockEnd
  0
BLOCK
  5
E8
330
E7
100
AcDbEntity
  8
0
100
AcDbBlockBegin
  2
SW_CENTERMARKSYMBOL_6
 70
     0
 10
0.0
 20
0.0
 30
0.0
  3
SW_CENTERMARKSYMBOL_6
  1

  0
LINE
  5
EA
330
E7
100
AcDbEntity
  8
FORMAT
 62
     0
100
AcDbLine
 10
0.0
 20
0.0
 30
0.0
 11
0.0
 21
2.5
 31
0.0
  0
LINE
  5
EB
330
E7
100
AcDbEntity
  8
FORMAT
 62
     0
100
AcDbLine
 10
0.0
 20
0.0
 30
0.0
 11
-2.5
 21
0.0
 31
0.0
  0
LINE
  5
EC
330
E7
100
AcDbEntity
  8
FORMAT
 62
     0
100
AcDbLine
 10
0.0
 20
0.0
 30
0.0
 11
0.0
 21
-2.5
 31
0.0
  0
LINE
  5
ED
330
E7
100
AcDbEntity
  8
FORMAT
 62
     0
100
AcDbLine
 10
0.0
 20
0.0
 30
0.0
 11
2.5
 21
0.0
 31
0.0
  0
LINE
  5
EE
330
E7
100
AcDbEntity
  8
FORMAT
 62
     0
100
AcDbLine
 10
0.0
 20
5.0
 30
0.0
 11
0.0
 21
14.5
 31
0.0
  0
LINE
  5
EF
330
E7
100
AcDbEntity
  8
FORMAT
 62
     0
100
AcDbLine
 10
-5.0
 20
0.0
 30
0.0
 11
-14.5
 21
0.0
 31
0.0
  0
LINE
  5
F0
330
E7
100
AcDbEntity
  8
FORMAT
 62
     0
100
AcDbLine
 10
0.0
 20
-5.0
 30
0.0
 11
0.0
 21
-14.5
 31
0.0
  0
LINE
  5
F1
330
E7
100
AcDbEntity
  8
FORMAT
 62
     0
100
AcDbLine
 10
5.0
 20
0.0
 30
0.0
 11
14.5
 21
0.0
 31
0.0
  0
ENDBLK
  5
E9
330
E7
100
AcDbEntity
  8
0
100
AcDbBlockEnd
  0
BLOCK
  5
F4
330
F3
100
AcDbEntity
  8
0
100
AcDbBlockBegin
  2
SW_CENTERMARKSYMBOL_7
 70
     0
 10
0.0
 20
0.0
 30
0.0
  3
SW_CENTERMARKSYMBOL_7
  1

  0
LINE
  5
F6
330
F3
100
AcDbEntity
  8
FORMAT
 62
     0
100
AcDbLine
 10
0.0
 20
0.0
 30
0.0
 11
0.0
 21
2.5
 31
0.0
  0
LINE
  5
F7
330
F3
100
AcDbEntity
  8
FORMAT
 62
     0
100
AcDbLine
 10
0.0
 20
0.0
 30
0.0
 11
-2.5
 21
0.0
 31
0.0
  0
LINE
  5
F8
330
F3
100
AcDbEntity
  8
FORMAT
 62
     0
100
AcDbLine
 10
0.0
 20
0.0
 30
0.0
 11
0.0
 21
-2.5
 31
0.0
  0
LINE
  5
F9
330
F3
100
AcDbEntity
  8
FORMAT
 62
     0
100
AcDbLine
 10
0.0
 20
0.0
 30
0.0
 11
2.5
 21
0.0
 31
0.0
  0
LINE
  5
FA
330
F3
100
AcDbEntity
  8
FORMAT
 62
     0
100
AcDbLine
 10
0.0
 20
5.0
 30
0.0
 11
0.0
 21
14.5
 31
0.0
  0
LINE
  5
FB
330
F3
100
AcDbEntity
  8
FORMAT
 62
     0
100
AcDbLine
 10
-5.0
 20
0.0
 30
0.0
 11
-14.5
 21
0.0
 31
0.0
  0
LINE
  5
FC
330
F3
100
AcDbEntity
  8
FORMAT
 62
     0
100
AcDbLine
 10
0.0
 20
-5.0
 30
0.0
 11
0.0
 21
-14.5
 31
0.0
  0
LINE
  5
FD
330
F3
100
AcDbEntity
  8
FORMAT
 62
     0
100
AcDbLine
 10
5.0
 20
0.0
 30
0.0
 11
14.5
 21
0.0
 31
0.0
  0
ENDBLK
  5
F5
330
F3
100
AcDbEntity
  8
0
100
AcDbBlockEnd
  0
BLOCK
  5
100
330
FF
100
AcDbEntity
  8
0
100
AcDbBlockBegin
  2
SW_CENTERMARKSYMBOL_8
 70
     0
 10
0.0
 20
0.0
 30
0.0
  3
SW_CENTERMARKSYMBOL_8
  1

  0
LINE
  5
102
330
FF
100
AcDbEntity
  8
FORMAT
 62
     0
100
AcDbLine
 10
0.0
 20
0.0
 30
0.0
 11
0.0
 21
2.5
 31
0.0
  0
LINE
  5
103
330
FF
100
AcDbEntity
  8
FORMAT
 62
     0
100
AcDbLine
 10
0.0
 20
0.0
 30
0.0
 11
-2.5
 21
0.0
 31
0.0
  0
LINE
  5
104
330
FF
100
AcDbEntity
  8
FORMAT
 62
     0
100
AcDbLine
 10
0.0
 20
0.0
 30
0.0
 11
0.0
 21
-2.5
 31
0.0
  0
LINE
  5
105
330
FF
100
AcDbEntity
  8
FORMAT
 62
     0
100
AcDbLine
 10
0.0
 20
0.0
 30
0.0
 11
2.5
 21
0.0
 31
0.0
  0
LINE
  5
106
330
FF
100
AcDbEntity
  8
FORMAT
 62
     0
100
AcDbLine
 10
0.0
 20
5.0
 30
0.0
 11
0.0
 21
14.5
 31
0.0
  0
LINE
  5
107
330
FF
100
AcDbEntity
  8
FORMAT
 62
     0
100
AcDbLine
 10
-5.0
 20
0.0
 30
0.0
 11
-14.5
 21
0.0
 31
0.0
  0
LINE
  5
108
330
FF
100
AcDbEntity
  8
FORMAT
 62
     0
100
AcDbLine
 10
0.0
 20
-5.0
 30
0.0
 11
0.0
 21
-14.5
 31
0.0
  0
LINE
  5
109
330
FF
100
AcDbEntity
  8
FORMAT
 62
     0
100
AcDbLine
 10
5.0
 20
0.0
 30
0.0
 11
14.5
 21
0.0
 31
0.0
  0
ENDBLK
  5
101
330
FF
100
AcDbEntity
  8
0
100
AcDbBlockEnd
  0
BLOCK
  5
10C
330
10B
100
AcDbEntity
  8
0
100
AcDbBlockBegin
  2
SW_CENTERMARKSYMBOL_9
 70
     0
 10
0.0
 20
0.0
 30
0.0
  3
SW_CENTERMARKSYMBOL_9
  1

  0
LINE
  5
10E
330
10B
100
AcDbEntity
  8
FORMAT
 62
     0
100
AcDbLine
 10
0.0
 20
0.0
 30
0.0
 11
0.0
 21
2.5
 31
0.0
  0
LINE
  5
10F
330
10B
100
AcDbEntity
  8
FORMAT
 62
     0
100
AcDbLine
 10
0.0
 20
0.0
 30
0.0
 11
-2.5
 21
0.0
 31
0.0
  0
LINE
  5
110
330
10B
100
AcDbEntity
  8
FORMAT
 62
     0
100
AcDbLine
 10
0.0
 20
0.0
 30
0.0
 11
0.0
 21
-2.5
 31
0.0
  0
LINE
  5
111
330
10B
100
AcDbEntity
  8
FORMAT
 62
     0
100
AcDbLine
 10
0.0
 20
0.0
 30
0.0
 11
2.5
 21
0.0
 31
0.0
  0
LINE
  5
112
330
10B
100
AcDbEntity
  8
FORMAT
 62
     0
100
AcDbLine
 10
0.0
 20
5.0
 30
0.0
 11
0.0
 21
14.5
 31
0.0
  0
LINE
  5
113
330
10B
100
AcDbEntity
  8
FORMAT
 62
     0
100
AcDbLine
 10
-5.0
 20
0.0
 30
0.0
 11
-14.5
 21
0.0
 31
0.0
  0
LINE
  5
114
330
10B
100
AcDbEntity
  8
FORMAT
 62
     0
100
AcDbLine
 10
0.0
 20
-5.0
 30
0.0
 11
0.0
 21
-14.5
 31
0.0
  0
LINE
  5
115
330
10B
100
AcDbEntity
  8
FORMAT
 62
     0
100
AcDbLine
 10
5.0
 20
0.0
 30
0.0
 11
14.5
 21
0.0
 31
0.0
  0
ENDBLK
  5
10D
330
10B
100
AcDbEntity
  8
0
100
AcDbBlockEnd
  0
BLOCK
  5
118
330
117
100
AcDbEntity
  8
0
100
AcDbBlockBegin
  2
SW_CENTERMARKSYMBOL_10
 70
     0
 10
0.0
 20
0.0
 30
0.0
  3
SW_CENTERMARKSYMBOL_10
  1

  0
LINE
  5
11A
330
117
100
AcDbEntity
  8
FORMAT
 62
     0
100
AcDbLine
 10
0.0
 20
0.0
 30
0.0
 11
0.0
 21
2.5
 31
0.0
  0
LINE
  5
11B
330
117
100
AcDbEntity
  8
FORMAT
 62
     0
100
AcDbLine
 10
0.0
 20
0.0
 30
0.0
 11
-2.5
 21
0.0
 31
0.0
  0
LINE
  5
11C
330
117
100
AcDbEntity
  8
FORMAT
 62
     0
100
AcDbLine
 10
0.0
 20
0.0
 30
0.0
 11
0.0
 21
-2.5
 31
0.0
  0
LINE
  5
11D
330
117
100
AcDbEntity
  8
FORMAT
 62
     0
100
AcDbLine
 10
0.0
 20
0.0
 30
0.0
 11
2.5
 21
0.0
 31
0.0
  0
LINE
  5
11E
330
117
100
AcDbEntity
  8
FORMAT
 62
     0
100
AcDbLine
 10
0.0
 20
5.0
 30
0.0
 11
0.0
 21
14.5
 31
0.0
  0
LINE
  5
11F
330
117
100
AcDbEntity
  8
FORMAT
 62
     0
100
AcDbLine
 10
-5.0
 20
0.0
 30
0.0
 11
-14.5
 21
0.0
 31
0.0
  0
LINE
  5
120
330
117
100
AcDbEntity
  8
FORMAT
 62
     0
100
AcDbLine
 10
0.0
 20
-5.0
 30
0.0
 11
0.0
 21
-14.5
 31
0.0
  0
LINE
  5
121
330
117
100
AcDbEntity
  8
FORMAT
 62
     0
100
AcDbLine
 10
5.0
 20
0.0
 30
0.0
 11
14.5
 21
0.0
 31
0.0
  0
ENDBLK
  5
119
330
117
100
AcDbEntity
  8
0
100
AcDbBlockEnd
  0
BLOCK
  5
124
330
123
100
AcDbEntity
  8
0
100
AcDbBlockBegin
  2
SW_CENTERMARKSYMBOL_11
 70
     0
 10
0.0
 20
0.0
 30
0.0
  3
SW_CENTERMARKSYMBOL_11
  1

  0
LINE
  5
126
330
123
100
AcDbEntity
  8
FORMAT
 62
     0
100
AcDbLine
 10
0.0
 20
0.0
 30
0.0
 11
0.0
 21
2.5
 31
0.0
  0
LINE
  5
127
330
123
100
AcDbEntity
  8
FORMAT
 62
     0
100
AcDbLine
 10
0.0
 20
0.0
 30
0.0
 11
-2.5
 21
0.0
 31
0.0
  0
LINE
  5
128
330
123
100
AcDbEntity
  8
FORMAT
 62
     0
100
AcDbLine
 10
0.0
 20
0.0
 30
0.0
 11
0.0
 21
-2.5
 31
0.0
  0
LINE
  5
129
330
123
100
AcDbEntity
  8
FORMAT
 62
     0
100
AcDbLine
 10
0.0
 20
0.0
 30
0.0
 11
2.5
 21
0.0
 31
0.0
  0
LINE
  5
12A
330
123
100
AcDbEntity
  8
FORMAT
 62
     0
100
AcDbLine
 10
0.0
 20
5.0
 30
0.0
 11
0.0
 21
14.5
 31
0.0
  0
LINE
  5
12B
330
123
100
AcDbEntity
  8
FORMAT
 62
     0
100
AcDbLine
 10
-5.0
 20
0.0
 30
0.0
 11
-14.5
 21
0.0
 31
0.0
  0
LINE
  5
12C
330
123
100
AcDbEntity
  8
FORMAT
 62
     0
100
AcDbLine
 10
0.0
 20
-5.0
 30
0.0
 11
0.0
 21
-14.5
 31
0.0
  0
LINE
  5
12D
330
123
100
AcDbEntity
  8
FORMAT
 62
     0
100
AcDbLine
 10
5.0
 20
0.0
 30
0.0
 11
14.5
 21
0.0
 31
0.0
  0
ENDBLK
  5
125
330
123
100
AcDbEntity
  8
0
100
AcDbBlockEnd
  0
BLOCK
  5
130
330
12F
100
AcDbEntity
  8
0
100
AcDbBlockBegin
  2
SW_CENTERMARKSYMBOL_12
 70
     0
 10
0.0
 20
0.0
 30
0.0
  3
SW_CENTERMARKSYMBOL_12
  1

  0
LINE
  5
132
330
12F
100
AcDbEntity
  8
FORMAT
 62
     0
100
AcDbLine
 10
0.0
 20
0.0
 30
0.0
 11
0.0
 21
2.5
 31
0.0
  0
LINE
  5
133
330
12F
100
AcDbEntity
  8
FORMAT
 62
     0
100
AcDbLine
 10
0.0
 20
0.0
 30
0.0
 11
-2.5
 21
0.0
 31
0.0
  0
LINE
  5
134
330
12F
100
AcDbEntity
  8
FORMAT
 62
     0
100
AcDbLine
 10
0.0
 20
0.0
 30
0.0
 11
0.0
 21
-2.5
 31
0.0
  0
LINE
  5
135
330
12F
100
AcDbEntity
  8
FORMAT
 62
     0
100
AcDbLine
 10
0.0
 20
0.0
 30
0.0
 11
2.5
 21
0.0
 31
0.0
  0
LINE
  5
136
330
12F
100
AcDbEntity
  8
FORMAT
 62
     0
100
AcDbLine
 10
0.0
 20
5.0
 30
0.0
 11
0.0
 21
14.5
 31
0.0
  0
LINE
  5
137
330
12F
100
AcDbEntity
  8
FORMAT
 62
     0
100
AcDbLine
 10
-5.0
 20
0.0
 30
0.0
 11
-14.5
 21
0.0
 31
0.0
  0
LINE
  5
138
330
12F
100
AcDbEntity
  8
FORMAT
 62
     0
100
AcDbLine
 10
0.0
 20
-5.0
 30
0.0
 11
0.0
 21
-14.5
 31
0.0
  0
LINE
  5
139
330
12F
100
AcDbEntity
  8
FORMAT
 62
     0
100
AcDbLine
 10
5.0
 20
0.0
 30
0.0
 11
14.5
 21
0.0
 31
0.0
  0
ENDBLK
  5
131
330
12F
100
AcDbEntity
  8
0
100
AcDbBlockEnd
  0
ENDSEC
  0
SECTION
  2
ENTITIES
  0
CIRCLE
  5
83
330
1F
100
AcDbEntity
  8
0
  6
Continuous
 62
     7
370
    25
100
AcDbCircle
 10
7.3718467622
 20
189.4409958732
 30
0.0
 40
11.99999999999998
  0
CIRCLE
  5
84
330
1F
100
AcDbEntity
  8
0
  6
Continuous
 62
     7
370
    25
100
AcDbCircle
 10
7.3718467622
 20
41.9409958732
 30
0.0
 40
11.99999999999998
  0
CIRCLE
  5
85
330
1F
100
AcDbEntity
  8
0
  6
Continuous
 62
     7
370
    25
100
AcDbCircle
 10
135.1105938204
 20
-31.8090041268
 30
0.0
 40
12.0
  0
CIRCLE
  5
86
330
1F
100
AcDbEntity
  8
0
  6
Continuous
 62
     7
370
    25
100
AcDbCircle
 10
282.6105938204
 20
115.6909958732
 30
0.0
 40
12.0
  0
CIRCLE
  5
87
330
1F
100
AcDbEntity
  8
0
  6
Continuous
 62
     7
370
    25
100
AcDbCircle
 10
208.8605938204
 20
243.4297429314
 30
0.0
 40
11.99999999999997
  0
CIRCLE
  5
88
330
1F
100
AcDbEntity
  8
0
  6
Continuous
 62
     7
370
    25
100
AcDbCircle
 10
135.1105938204
 20
263.1909958732
 30
0.0
 40
12.0
  0
CIRCLE
  5
89
330
1F
100
AcDbEntity
  8
0
  6
Continuous
 62
     7
370
    25
100
AcDbCircle
 10
135.1105938204
 20
115.6909958732
 30
0.0
 40
169.0
  0
CIRCLE
  5
8A
330
1F
100
AcDbEntity
  8
0
  6
Continuous
 62
     7
370
    25
100
AcDbCircle
 10
135.1105938204
 20
115.6909958732
 30
0.0
 40
118.5
  0
CIRCLE
  5
8B
330
1F
100
AcDbEntity
  8
0
  6
Continuous
 62
     7
370
    25
100
AcDbCircle
 10
262.8493408786
 20
41.9409958732
 30
0.0
 40
12.0
  0
CIRCLE
  5
8C
330
1F
100
AcDbEntity
  8
0
  6
Continuous
 62
     7
370
    25
100
AcDbCircle
 10
262.8493408786
 20
189.4409958732
 30
0.0
 40
12.0
  0
CIRCLE
  5
8D
330
1F
100
AcDbEntity
  8
0
  6
Continuous
 62
     7
370
    25
100
AcDbCircle
 10
208.8605938204
 20
-12.047751185
 30
0.0
 40
11.99999999999997
  0
CIRCLE
  5
8E
330
1F
100
AcDbEntity
  8
0
  6
Continuous
 62
     7
370
    25
100
AcDbCircle
 10
61.3605938204
 20
-12.047751185
 30
0.0
 40
12.0
  0
CIRCLE
  5
8F
330
1F
100
AcDbEntity
  8
0
  6
Continuous
 62
     7
370
    25
100
AcDbCircle
 10
-12.3894061796
 20
115.6909958732
 30
0.0
 40
12.00000000000001
  0
CIRCLE
  5
90
330
1F
100
AcDbEntity
  8
0
  6
Continuous
 62
     7
370
    25
100
AcDbCircle
 10
61.3605938204
 20
243.4297429314
 30
0.0
 40
12.0
  0
CIRCLE
  5
91
330
1F
100
AcDbEntity
  8
0
  6
Continuous
 62
     7
370
    25
100
AcDbCircle
 10
262.8493408786
 20
189.4409958732
 30
0.0
 40
11.0
  0
CIRCLE
  5
92
330
1F
100
AcDbEntity
  8
0
  6
Continuous
 62
     7
370
    25
100
AcDbCircle
 10
262.8493408786
 20
41.9409958732
 30
0.0
 40
11.0
  0
CIRCLE
  5
93
330
1F
100
AcDbEntity
  8
0
  6
Continuous
 62
     7
370
    25
100
AcDbCircle
 10
135.1105938204
 20
115.6909958732
 30
0.0
 40
117.5
  0
CIRCLE
  5
94
330
1F
100
AcDbEntity
  8
0
  6
Continuous
 62
     7
370
    25
100
AcDbCircle
 10
135.1105938204
 20
115.6909958732
 30
0.0
 40
170.0
  0
CIRCLE
  5
95
330
1F
100
AcDbEntity
  8
0
  6
Continuous
 62
     7
370
    25
100
AcDbCircle
 10
135.1105938204
 20
263.1909958732
 30
0.0
 40
11.0
  0
CIRCLE
  5
96
330
1F
100
AcDbEntity
  8
0
  6
Continuous
 62
     7
370
    25
100
AcDbCircle
 10
208.8605938204
 20
243.4297429314
 30
0.0
 40
10.99999999999997
  0
CIRCLE
  5
97
330
1F
100
AcDbEntity
  8
0
  6
Continuous
 62
     7
370
    25
100
AcDbCircle
 10
282.6105938204
 20
115.6909958732
 30
0.0
 40
11.0
  0
CIRCLE
  5
98
330
1F
100
AcDbEntity
  8
0
  6
Continuous
 62
     7
370
    25
100
AcDbCircle
 10
61.3605938204
 20
243.4297429314
 30
0.0
 40
11.0
  0
CIRCLE
  5
99
330
1F
100
AcDbEntity
  8
0
  6
Continuous
 62
     7
370
    25
100
AcDbCircle
 10
-12.3894061796
 20
115.6909958732
 30
0.0
 40
11.00000000000001
  0
CIRCLE
  5
9A
330
1F
100
AcDbEntity
  8
0
  6
Continuous
 62
     7
370
    25
100
AcDbCircle
 10
61.3605938204
 20
-12.047751185
 30
0.0
 40
11.0
  0
CIRCLE
  5
9B
330
1F
100
AcDbEntity
  8
0
  6
Continuous
 62
     7
370
    25
100
AcDbCircle
 10
208.8605938204
 20
-12.047751185
 30
0.0
 40
11.0
  0
CIRCLE
  5
9C
330
1F
100
AcDbEntity
  8
0
  6
Continuous
 62
     7
370
    25
100
AcDbCircle
 10
135.1105938204
 20
-31.8090041268
 30
0.0
 40
11.0
  0
CIRCLE
  5
9D
330
1F
100
AcDbEntity
  8
0
  6
Continuous
 62
     7
370
    25
100
AcDbCircle
 10
7.3718467622
 20
41.9409958732
 30
0.0
 40
10.99999999999999
  0
CIRCLE
  5
9E
330
1F
100
AcDbEntity
  8
0
  6
Continuous
 62
     7
370
    25
100
AcDbCircle
 10
7.3718467622
 20
189.4409958732
 30
0.0
 40
10.99999999999998
  0
INSERT
  5
AA
330
1F
100
AcDbEntity
  8
FORMAT
 62
     7
100
AcDbBlockReference
  2
SW_CENTERMARKSYMBOL_0
 10
135.1105938204
 20
115.6909958732
 30
0.0
  0
INSERT
  5
B6
330
1F
100
AcDbEntity
  8
FORMAT
 62
     7
100
AcDbBlockReference
  2
SW_CENTERMARKSYMBOL_1
 10
135.1105938204
 20
263.1909958732
 30
0.0
  0
INSERT
  5
C2
330
1F
100
AcDbEntity
  8
FORMAT
 62
     7
100
AcDbBlockReference
  2
SW_CENTERMARKSYMBOL_2
 10
208.8605938204
 20
243.4297429314
 30
0.0
  0
INSERT
  5
CE
330
1F
100
AcDbEntity
  8
FORMAT
 62
     7
100
AcDbBlockReference
  2
SW_CENTERMARKSYMBOL_3
 10
262.8493408786
 20
189.4409958732
 30
0.0
  0
INSERT
  5
DA
330
1F
100
AcDbEntity
  8
FORMAT
 62
     7
100
AcDbBlockReference
  2
SW_CENTERMARKSYMBOL_4
 10
282.6105938204
 20
115.6909958732
 30
0.0
  0
INSERT
  5
E6
330
1F
100
AcDbEntity
  8
FORMAT
 62
     7
100
AcDbBlockReference
  2
SW_CENTERMARKSYMBOL_5
 10
61.3605938204
 20
-12.047751185
 30
0.0
  0
INSERT
  5
F2
330
1F
100
AcDbEntity
  8
FORMAT
 62
     7
100
AcDbBlockReference
  2
SW_CENTERMARKSYMBOL_6
 10
135.1105938204
 20
-31.8090041268
 30
0.0
  0
INSERT
  5
FE
330
1F
100
AcDbEntity
  8
FORMAT
 62
     7
100
AcDbBlockReference
  2
SW_CENTERMARKSYMBOL_7
 10
208.8605938204
 20
-12.047751185
 30
0.0
  0
INSERT
  5
10A
330
1F
100
AcDbEntity
  8
FORMAT
 62
     7
100
AcDbBlockReference
  2
SW_CENTERMARKSYMBOL_8
 10
61.3605938204
 20
243.4297429314
 30
0.0
  0
INSERT
  5
116
330
1F
100
AcDbEntity
  8
FORMAT
 62
     7
100
AcDbBlockReference
  2
SW_CENTERMARKSYMBOL_9
 10
7.3718467622
 20
189.4409958732
 30
0.0
  0
INSERT
  5
122
330
1F
100
AcDbEntity
  8
FORMAT
 62
     7
100
AcDbBlockReference
  2
SW_CENTERMARKSYMBOL_10
 10
-12.3894061796
 20
115.6909958732
 30
0.0
  0
INSERT
  5
12E
330
1F
100
AcDbEntity
  8
FORMAT
 62
     7
100
AcDbBlockReference
  2
SW_CENTERMARKSYMBOL_11
 10
7.3718467622
 20
41.9409958732
 30
0.0
  0
INSERT
  5
13A
330
1F
100
AcDbEntity
  8
FORMAT
 62
     7
100
AcDbBlockReference
  2
SW_CENTERMARKSYMBOL_12
 10
262.8493408786
 20
41.9409958732
 30
0.0
  0
LINE
  5
13B
330
1F
100
AcDbEntity
  8
0
  6
Continuous
 62
     7
370
    25
100
AcDbLine
 10
-178.6063545621
 20
285.6909958732
 30
0.0
 11
-203.6063545621
 21
285.6909958732
 31
0.0
  0
LINE
  5
13C
330
1F
100
AcDbEntity
  8
0
  6
Continuous
 62
     7
370
    25
100
AcDbLine
 10
-203.6063545621
 20
-54.3090041268
 30
0.0
 11
-178.6063545621
 21
-54.3090041268
 31
0.0
  0
ARC
  5
13D
330
1F
100
AcDbEntity
  8
0
  6
Continuous
 62
     7
370
    25
100
AcDbCircle
 10
-178.6063545621
 20
-53.3090041268
 30
0.0
 40
1.0
100
AcDbArc
 50
270.0
 51
0.0
  0
ARC
  5
13E
330
1F
100
AcDbEntity
  8
0
  6
Continuous
 62
     7
370
    25
100
AcDbCircle
 10
-178.6063545621
 20
284.6909958732
 30
0.0
 40
1.0
100
AcDbArc
 50
0.0
 51
90.0
  0
ARC
  5
13F
330
1F
100
AcDbEntity
  8
0
  6
Continuous
 62
     7
370
    25
100
AcDbCircle
 10
-203.6063545621
 20
-53.3090041268
 30
0.0
 40
1.0
100
AcDbArc
 50
180.0
 51
270.0
  0
ARC
  5
140
330
1F
100
AcDbEntity
  8
0
  6
Continuous
 62
     7
370
    25
100
AcDbCircle
 10
-203.6063545621
 20
284.6909958732
 30
0.0
 40
1.0
100
AcDbArc
 50
90.0
 51
180.0
  0
LINE
  5
141
330
1F
100
AcDbEntity
  8
0
  6
Continuous
 62
     7
370
    25
100
AcDbLine
 10
-177.6063545621
 20
115.6909958732
 30
0.0
 11
-177.6063545621
 21
-53.3090041268
 31
0.0
  0
LINE
  5
142
330
1F
100
AcDbEntity
  8
0
  6
Continuous
 62
     7
370
    25
100
AcDbLine
 10
-177.6063545621
 20
284.6909958732
 30
0.0
 11
-177.6063545621
 21
115.6909958732
 31
0.0
  0
LINE
  5
143
330
1F
100
AcDbEntity
  8
0
  6
Continuous
 62
     7
370
    25
100
AcDbLine
 10
-204.6063545621
 20
115.6909958732
 30
0.0
 11
-204.6063545621
 21
284.6909958732
 31
0.0
  0
LINE
  5
144
330
1F
100
AcDbEntity
  8
0
  6
Continuous
 62
     7
370
    25
100
AcDbLine
 10
-204.6063545621
 20
-53.3090041268
 30
0.0
 11
-204.6063545621
 21
115.6909958732
 31
0.0
  0
LINE
  5
145
330
1F
100
AcDbEntity
  8
0
  6
Continuous
 62
     1
370
    25
100
AcDbLine
 10
-203.6063545621
 20
115.6909958732
 30
0.0
 11
-203.6063545621
 21
-54.3090041268
 31
0.0
  0
LINE
  5
146
330
1F
100
AcDbEntity
  8
0
  6
Continuous
 62
     1
370
    25
100
AcDbLine
 10
-203.6063545621
 20
285.6909958732
 30
0.0
 11
-203.6063545621
 21
115.6909958732
 31
0.0
  0
LINE
  5
147
330
1F
100
AcDbEntity
  8
0
  6
Continuous
 62
     1
370
    25
100
AcDbLine
 10
-178.6063545621
 20
115.6909958732
 30
0.0
 11
-178.6063545621
 21
285.6909958732
 31
0.0
  0
LINE
  5
148
330
1F
100
AcDbEntity
  8
0
  6
Continuous
 62
     1
370
    25
100
AcDbLine
 10
-178.6063545621
 20
-54.3090041268
 30
0.0
 11
-178.6063545621
 21
115.6909958732
 31
0.0
  0
LINE
  5
149
330
1F
100
AcDbEntity
  8
0
  6
Continuous
 62
     7
370
    25
100
AcDbLine
 10
430.3023667847
 20
-54.3090041268
 30
0.0
 11
455.3023667847
 21
-54.3090041268
 31
0.0
  0
LINE
  5
14A
330
1F
100
AcDbEntity
  8
0
  6
Continuous
 62
     7
370
    25
100
AcDbLine
 10
455.3023667847
 20
285.6909958732
 30
0.0
 11
430.3023667847
 21
285.6909958732
 31
0.0
  0
ARC
  5
14B
330
1F
100
AcDbEntity
  8
0
  6
Continuous
 62
     7
370
    25
100
AcDbCircle
 10
430.3023667847
 20
284.6909958732
 30
0.0
 40
1.0
100
AcDbArc
 50
90.0
 51
180.0
  0
ARC
  5
14C
330
1F
100
AcDbEntity
  8
0
  6
Continuous
 62
     7
370
    25
100
AcDbCircle
 10
430.3023667847
 20
-53.3090041268
 30
0.0
 40
1.0
100
AcDbArc
 50
180.0
 51
270.0
  0
ARC
  5
14D
330
1F
100
AcDbEntity
  8
0
  6
Continuous
 62
     7
370
    25
100
AcDbCircle
 10
455.3023667847
 20
284.6909958732
 30
0.0
 40
1.0
100
AcDbArc
 50
0.0
 51
90.0
  0
ARC
  5
14E
330
1F
100
AcDbEntity
  8
0
  6
Continuous
 62
     7
370
    25
100
AcDbCircle
 10
455.3023667847
 20
-53.3090041268
 30
0.0
 40
1.0
100
AcDbArc
 50
270.0
 51
0.0
  0
LINE
  5
14F
330
1F
100
AcDbEntity
  8
0
  6
Continuous
 62
     7
370
    25
100
AcDbLine
 10
429.3023667847
 20
-53.3090041268
 30
0.0
 11
429.3023667847
 21
284.6909958732
 31
0.0
  0
LINE
  5
150
330
1F
100
AcDbEntity
  8
0
  6
Continuous
 62
     7
370
    25
100
AcDbLine
 10
456.3023667847
 20
284.6909958732
 30
0.0
 11
456.3023667847
 21
-53.3090041268
 31
0.0
  0
LINE
  5
151
330
1F
100
AcDbEntity
  8
0
  6
Continuous
 62
     1
370
    25
100
AcDbLine
 10
455.3023667847
 20
-54.3090041268
 30
0.0
 11
455.3023667847
 21
285.6909958732
 31
0.0
  0
LINE
  5
152
330
1F
100
AcDbEntity
  8
0
  6
Continuous
 62
     1
370
    25
100
AcDbLine
 10
430.3023667847
 20
285.6909958732
 30
0.0
 11
430.3023667847
 21
-54.3090041268
 31
0.0
  0
LINE
  5
153
330
1F
100
AcDbEntity
  8
0
  6
Continuous
 62
     7
370
    25
100
AcDbLine
 10
305.1105938204
 20
371.6238856728
 30
0.0
 11
305.1105938204
 21
396.6238856728
 31
0.0
  0
LINE
  5
154
330
1F
100
AcDbEntity
  8
0
  6
Continuous
 62
     7
370
    25
100
AcDbLine
 10
-34.8894061796
 20
396.6238856728
 30
0.0
 11
-34.8894061796
 21
371.6238856728
 31
0.0
  0
ARC
  5
155
330
1F
100
AcDbEntity
  8
0
  6
Continuous
 62
     7
370
    25
100
AcDbCircle
 10
-33.8894061796
 20
371.6238856728
 30
0.0
 40
1.000000000000007
100
AcDbArc
 50
180.0
 51
270.0
  0
ARC
  5
156
330
1F
100
AcDbEntity
  8
0
  6
Continuous
 62
     7
370
    25
100
AcDbCircle
 10
304.1105938204
 20
371.6238856728
 30
0.0
 40
1.0
100
AcDbArc
 50
270.0
 51
0.0
  0
ARC
  5
157
330
1F
100
AcDbEntity
  8
0
  6
Continuous
 62
     7
370
    25
100
AcDbCircle
 10
-33.8894061796
 20
396.6238856728
 30
0.0
 40
1.000000000000007
100
AcDbArc
 50
90.0
 51
180.0
  0
ARC
  5
158
330
1F
100
AcDbEntity
  8
0
  6
Continuous
 62
     7
370
    25
100
AcDbCircle
 10
304.1105938204
 20
396.6238856728
 30
0.0
 40
1.0
100
AcDbArc
 50
0.0
 51
90.0
  0
LINE
  5
159
330
1F
100
AcDbEntity
  8
0
  6
Continuous
 62
     7
370
    25
100
AcDbLine
 10
304.1105938204
 20
370.6238856728
 30
0.0
 11
-33.8894061796
 21
370.6238856728
 31
0.0
  0
LINE
  5
15A
330
1F
100
AcDbEntity
  8
0
  6
Continuous
 62
     7
370
    25
100
AcDbLine
 10
-33.8894061788
 20
397.6238856728
 30
0.0
 11
304.1105938204
 21
397.6238856728
 31
0.0
  0
LINE
  5
15B
330
1F
100
AcDbEntity
  8
0
  6
Continuous
 62
     1
370
    25
100
AcDbLine
 10
305.1105938204
 20
396.6238856728
 30
0.0
 11
-34.8894061796
 21
396.6238856728
 31
0.0
  0
LINE
  5
15C
330
1F
100
AcDbEntity
  8
0
  6
Continuous
 62
     1
370
    25
100
AcDbLine
 10
-34.8894061796
 20
371.6238856728
 30
0.0
 11
305.1105938204
 21
371.6238856728
 31
0.0
  0
LINE
  5
15D
330
1F
100
AcDbEntity
  8
0
  6
Continuous
 62
     7
370
    25
100
AcDbLine
 10
-34.8894061796
 20
-250.1461647757
 30
0.0
 11
-34.8894061796
 21
-275.1461647757
 31
0.0
  0
LINE
  5
15E
330
1F
100
AcDbEntity
  8
0
  6
Continuous
 62
     7
370
    25
100
AcDbLine
 10
305.1105938204
 20
-275.1461647757
 30
0.0
 11
305.1105938204
 21
-250.1461647757
 31
0.0
  0
ARC
  5
15F
330
1F
100
AcDbEntity
  8
0
  6
Continuous
 62
     7
370
    25
100
AcDbCircle
 10
304.1105938204
 20
-250.1461647757
 30
0.0
 40
1.0
100
AcDbArc
 50
0.0
 51
90.0
  0
ARC
  5
160
330
1F
100
AcDbEntity
  8
0
  6
Continuous
 62
     7
370
    25
100
AcDbCircle
 10
-33.8894061796
 20
-250.1461647757
 30
0.0
 40
1.000000000000007
100
AcDbArc
 50
90.0
 51
180.0
  0
ARC
  5
161
330
1F
100
AcDbEntity
  8
0
  6
Continuous
 62
     7
370
    25
100
AcDbCircle
 10
304.1105938204
 20
-275.1461647757
 30
0.0
 40
1.0
100
AcDbArc
 50
270.0
 51
0.0
  0
ARC
  5
162
330
1F
100
AcDbEntity
  8
0
  6
Continuous
 62
     7
370
    25
100
AcDbCircle
 10
-33.8894061796
 20
-275.1461647757
 30
0.0
 40
1.000000000000007
100
AcDbArc
 50
180.0
 51
270.0
  0
LINE
  5
163
330
1F
100
AcDbEntity
  8
0
  6
Continuous
 62
     7
370
    25
100
AcDbLine
 10
-33.8894061788
 20
-249.1461647757
 30
0.0
 11
304.1105938204
 21
-249.1461647757
 31
0.0
  0
LINE
  5
164
330
1F
100
AcDbEntity
  8
0
  6
Continuous
 62
     7
370
    25
100
AcDbLine
 10
304.1105938204
 20
-276.1461647757
 30
0.0
 11
-33.8894061796
 21
-276.1461647757
 31
0.0
  0
LINE
  5
165
330
1F
100
AcDbEntity
  8
0
  6
Continuous
 62
     1
370
    25
100
AcDbLine
 10
-34.8894061796
 20
-275.1461647757
 30
0.0
 11
305.1105938204
 21
-275.1461647757
 31
0.0
  0
LINE
  5
166
330
1F
100
AcDbEntity
  8
0
  6
Continuous
 62
     1
370
    25
100
AcDbLine
 10
305.1105938204
 20
-250.1461647757
 30
0.0
 11
-34.8894061796
 21
-250.1461647757
 31
0.0
  0
SPLINE
  5
167
330
1F
100
AcDbEntity
  8
0
  6
Continuous
 62
     7
370
    25
100
AcDbSpline
210
0.0
220
0.0
230
1.0
 70
     8
 71
     3
 72
    71
 73
    67
 74
     0
 42
0.00000001
 43
0.00000001
 40
0.0
 40
0.0
 40
0.0
 40
0.0
 40
0.0128841316962945
 40
0.0285943272894662
 40
0.0443151279437798
 40
0.0600458382602922
 40
0.0757854042863428
 40
0.0915325698491705
 40
0.1072860095295989
 40
0.1230444296909944
 40
0.1388066366411768
 40
0.1545715758835429
 40
0.1703383486847314
 40
0.1861062125489204
 40
0.2018745714327596
 40
0.2176428575960255
 40
0.2334107267632319
 40
0.2491779505803218
 40
0.2649443738546173
 40
0.2807099002598193
 40
0.2964744801422406
 40
0.3122381003615646
 40
0.3280007759854298
 40
0.3437625436060021
 40
0.3595234560357272
 40
0.3752835781513302
 40
0.3910429836783296
 40
0.4068017527358442
 40
0.4225599699890119
 40
0.4383177232818122
 40
0.4540751026453756
 40
0.4698321995955429
 40
0.4855891066488006
 40
0.5013459169976201
 40
0.5171027242953512
 40
0.5328596027733753
 40
0.5486166350352061
 40
0.5643739153595594
 40
0.5801315379634212
 40
0.5958895967566051
 40
0.6116481849734221
 40
0.6274073946267085
 40
0.6431673157209935
 40
0.6589280351482576
 40
0.6746896351729196
 40
0.6904521913923686
 40
0.7062157700351605
 40
0.7219804244318025
 40
0.7377461904637841
 40
0.7535130807679595
 40
0.7692810774503505
 40
0.7850501230539435
 40
0.8008201095420104
 40
0.8165908651216606
 40
0.8323621388694803
 40
0.8481335167270878
 40
0.8639044215621955
 40
0.879674208942087
 40
0.895442079086859
 40
0.9112070679751588
 40
0.9269680501281126
 40
0.9427237593325207
 40
0.9584728342015538
 40
0.9742138947626747
 40
0.9899456533775794
 40
0.9999999999999999
 40
0.9999999999999999
 40
0.9999999999999999
 40
0.9999999999999999
 10
536.0646600540888
 20
-65.79677755157707
 30
0.0
 10
534.8763907166128
 20
-65.66938381843354
 30
0.0
 10
532.2392116544337
 20
-65.3866532327798
 30
0.0
 10
528.0314284812338
 20
-65.27439701964025
 30
0.0
 10
523.4735837489836
 20
-65.3974333533136
 30
0.0
 10
518.8266916777485
 20
-65.79996152571587
 30
0.0
 10
514.1028350541629
 20
-66.4714420967846
 30
0.0
 10
509.3093982501111
 20
-67.41343618206098
 30
0.0
 10
504.4552083991999
 20
-68.62359089030751
 30
0.0
 10
499.5488427117797
 20
-70.0999437642075
 30
0.0
 10
494.5990430002331
 20
-71.83978503257573
 30
0.0
 10
489.6145722311023
 20
-73.83998269609145
 30
0.0
 10
484.6042271106539
 20
-76.0969164384284
 30
0.0
 10
479.5768139643551
 20
-78.60651581597853
 30
0.0
 10
474.5411490024563
 20
-81.36426311117667
 30
0.0
 10
469.5060345566685
 20
-84.36521249904014
 30
0.0
 10
464.4802460773251
 20
-87.60400378097444
 30
0.0
 10
459.4725111574835
 20
-91.07488284055853
 30
0.0
 10
454.4915111137921
 20
-94.77170624589785
 30
0.0
 10
449.5458724876949
 20
-98.68795015786647
 30
0.0
 10
444.6441552036699
 20
-102.8167210686861
 30
0.0
 10
439.7948402416605
 20
-107.1507668872748
 30
0.0
 10
435.0063169015913
 20
-111.682488500015
 30
0.0
 10
430.2868697538127
 20
-116.4039518950768
 30
0.0
 10
425.6446653748821
 20
-121.3069009011304
 30
0.0
 10
421.0877389655383
 20
-126.3827705638484
 30
0.0
 10
416.6239809412307
 20
-131.622701162886
 30
0.0
 10
412.2611235772357
 20
-137.0175528571122
 30
0.0
 10
408.0067277816736
 20
-142.5579209353074
 30
0.0
 10
403.8681700614146
 20
-148.2341516422284
 30
0.0
 10
399.8526297383341
 20
-154.0363585449673
 30
0.0
 10
395.9670764668125
 20
-159.9544394011439
 30
0.0
 10
392.2182580976974
 20
-165.9780934882726
 30
0.0
 10
388.6126889294066
 20
-172.0968393516393
 30
0.0
 10
385.1566398248769
 20
-178.3000303386111
 30
0.0
 10
381.856126415707
 20
-184.576873967083
 30
0.0
 10
378.7168976977248
 20
-190.9164522026738
 30
0.0
 10
375.744424984939
 20
-197.3077432297904
 30
0.0
 10
372.9438933932405
 20
-203.739639655275
 30
0.0
 10
370.3201938894456
 20
-210.2009662883559
 30
0.0
 10
367.8779151168008
 20
-216.6804995462485
 30
0.0
 10
365.6213358233177
 20
-223.166986893576
 30
0.0
 10
363.5544179084502
 20
-229.6491662557189
 30
0.0
 10
361.6808000991447
 20
-236.1157853422472
 30
0.0
 10
360.0037922606698
 20
-242.5556208115616
 30
0.0
 10
358.5263703401343
 20
-248.9574972022876
 30
0.0
 10
357.2511719305664
 20
-255.3103055510588
 30
0.0
 10
356.1804924301347
 20
-261.6030216104845
 30
0.0
 10
355.3162817534865
 20
-267.8247235763554
 30
0.0
 10
354.6601415298043
 20
-273.9646092301749
 30
0.0
 10
354.2133226923104
 20
-280.0120124063593
 30
0.0
 10
353.9767233329162
 20
-285.9564186972955
 30
0.0
 10
353.9508866381212
 20
-291.7874803506068
 30
0.0
 10
354.1359987356412
 20
-297.4950302764689
 30
0.0
 10
354.5318854553055
 20
-303.0690875751936
 30
0.0
 10
355.1380072303768
 20
-308.499865216374
 30
0.0
 10
355.953451688383
 20
-313.7777937764521
 30
0.0
 10
356.9769344638149
 20
-318.893534328523
 30
0.0
 10
358.206772973928
 20
-323.8380224791507
 30
0.0
 10
359.6409561385186
 20
-328.6023774749622
 30
0.0
 10
361.2768409022003
 20
-333.1782886298083
 30
0.0
 10
363.1122430659308
 20
-337.5566676362137
 30
0.0
 10
365.1413319125792
 20
-341.7327896558587
 30
0.0
 10
367.3699190237149
 20
-345.6872566552524
 30
0.0
 10
369.4716349991292
 20
-349.0044605011003
 30
0.0
 10
370.9063075117929
 20
-350.9057283626937
 30
0.0
 10
371.4657054743476
 20
-351.6470580798646
 30
0.0
  0
LINE
  5
168
330
1F
100
AcDbEntity
  8
0
  6
Continuous
 62
     7
370
    25
100
AcDbLine
 10
577.1428177661
 20
-83.5700426779
 30
0.0
 11
559.4651482364
 21
-73.3649412801
 31
0.0
  0
LINE
  5
169
330
1F
100
AcDbEntity
  8
0
  6
Continuous
 62
     7
370
    25
100
AcDbLine
 10
389.4789636883
 20
-367.8215544896
 30
0.0
 11
407.1566332179
 21
-378.0266558873
 31
0.0
  0
SPLINE
  5
16A
330
1F
100
AcDbEntity
  8
0
  6
Continuous
 62
     7
370
    25
100
AcDbSpline
210
0.0
220
0.0
230
1.0
 70
     8
 71
     3
 72
    58
 73
    54
 74
     0
 42
0.00000001
 43
0.00000001
 40
0.0
 40
0.0
 40
0.0
 40
0.0
 40
0.0151222661761899
 40
0.034847720774948
 40
0.054586571124692
 40
0.0743380285681053
 40
0.0941008237263627
 40
0.1138734055289237
 40
0.1336541135110705
 40
0.15344131091432
 40
0.1732334762125366
 40
0.1930292573434944
 40
0.212827496217702
 40
0.2326272318237477
 40
0.2524276894517231
 40
0.2722281543351935
 40
0.2920281473280091
 40
0.3118273663235048
 40
0.331625603975954
 40
0.3514227293630136
 40
0.3712186722819433
 40
0.3910134101243415
 40
0.4108069571181782
 40
0.4305993556516762
 40
0.4503906693739717
 40
0.4701809777791799
 40
0.4899703720081455
 40
0.5097589516363372
 40
0.5295468222511541
 40
0.5493340936543724
 40
0.5691208785540689
 40
0.5889072916346019
 40
0.6086934489129525
 40
0.6284794673054859
 40
0.6482654643409727
 40
0.6680515390325182
 40
0.6878377892255526
 40
0.7076243332985289
 40
0.7274112895890182
 40
0.7471987761028426
 40
0.7669869100787815
 40
0.7867758073408587
 40
0.8065655813609408
 40
0.8263563419382853
 40
0.8461481933822399
 40
0.8659412320594164
 40
0.8857355431370009
 40
0.9055311963202226
 40
0.925328240345434
 40
0.9451266959539946
 40
0.9649265470417077
 40
0.9847277296631601
 40
1.0
 40
1.0
 40
1.0
 40
1.0
 10
430.1469530683185
 20
-385.541664880834
 30
0.0
 10
431.2538135404006
 20
-385.6705869200732
 30
0.0
 10
433.8044606602534
 20
-385.9676746166393
 30
0.0
 10
437.9199472053586
 20
-386.1126476485082
 30
0.0
 10
442.4640115153987
 20
-386.0307477207899
 30
0.0
 10
447.0987008498548
 20
-385.6684217973443
 30
0.0
 10
451.8114937607538
 20
-385.037263035903
 30
0.0
 10
456.5951549135821
 20
-384.1353279431124
 30
0.0
 10
461.4408413590187
 20
-382.9649728577784
 30
0.0
 10
466.339997842965
 20
-381.5280621616411
 30
0.0
 10
471.2838889709265
 20
-379.8272375266321
 30
0.0
 10
476.2637579872039
 20
-377.8655579117787
 30
0.0
 10
481.2708109630209
 20
-375.6465750436656
 30
0.0
 10
486.2962424493007
 20
-373.174292552659
 30
0.0
 10
491.3312370474811
 20
-370.4531625500069
 30
0.0
 10
496.3669893077879
 20
-367.488068119142
 30
0.0
 10
501.3947191351195
 20
-364.2843086061998
 30
0.0
 10
506.4056910107147
 20
-360.8475804390921
 30
0.0
 10
511.3912164481043
 20
-357.183969546619
 30
0.0
 10
516.3426600190311
 20
-353.2999438436573
 30
0.0
 10
521.2514511179653
 20
-349.2023425297803
 30
0.0
 10
526.1090962218639
 20
-344.8983650645534
 30
0.0
 10
530.9071915706019
 20
-340.3955596841515
 30
0.0
 10
535.6374361760869
 20
-335.7018113648572
 30
0.0
 10
540.2916450607888
 20
-330.8253291778331
 30
0.0
 10
544.8617626281474
 20
-325.7746330081092
 30
0.0
 10
549.3398760733661
 20
-320.5585396324274
 30
0.0
 10
553.7182287512687
 20
-315.1861481662546
 30
0.0
 10
557.9892334266223
 20
-309.6668249014086
 30
0.0
 10
562.1454853407395
 20
-304.0101875634771
 30
0.0
 10
566.1797750358415
 20
-298.2260890234774
 30
0.0
 10
570.0851008853716
 20
-292.3246005017943
 30
0.0
 10
573.8546812842468
 20
-286.3159943047856
 30
0.0
 10
577.481966457775
 20
-280.2107261364069
 30
0.0
 10
580.9606487430437
 20
-274.0194190022211
 30
0.0
 10
584.2846737180654
 20
-267.7528450865288
 30
0.0
 10
587.4482520753454
 20
-261.421904947058
 30
0.0
 10
590.4458704901532
 20
-255.0376064102649
 30
0.0
 10
593.2723008163831
 20
-248.6110451290256
 30
0.0
 10
595.9226077933415
 20
-242.1533874329298
 30
0.0
 10
598.392157294492
 20
-235.6758509406477
 30
0.0
 10
600.6766240416085
 20
-229.1896850920614
 30
0.0
 10
602.7719984579458
 20
-222.7061518381099
 30
0.0
 10
604.674593806519
 20
-216.2365058854691
 30
0.0
 10
606.3810492857962
 20
-209.7919770499225
 30
0.0
 10
607.888345212401
 20
-203.3837455143014
 30
0.0
 10
609.193770102605
 20
-197.0229446984153
 30
0.0
 10
610.2950643615576
 20
-190.7205625808807
 30
0.0
 10
611.1899019979281
 20
-184.4877239620124
 30
0.0
 10
611.8778405313828
 20
-178.3345532380916
 30
0.0
 10
612.3530562415247
 20
-172.2743381297356
 30
0.0
 10
612.6102387896723
 20
-166.7629122384372
 30
0.0
 10
612.6384759954419
 20
-163.3137540586391
 30
0.0
 10
612.650771512527
 20
-161.8118638336008
 30
0.0
  0
SPLINE
  5
16B
330
1F
100
AcDbEntity
  8
0
  6
Continuous
 62
     7
370
    25
100
AcDbSpline
210
0.0
220
0.0
230
1.0
 70
     8
 71
     3
 72
    21
 73
    17
 74
     0
 42
0.00000001
 43
0.00000001
 40
0.0
 40
0.0
 40
0.0
 40
0.0
 40
0.0410062105683129
 40
0.118896943469268
 40
0.1967949315769574
 40
0.274693013875646
 40
0.3525883320597652
 40
0.4304775932720528
 40
0.5083567282200868
 40
0.5862208540940754
 40
0.6640642994145829
 40
0.7418807224753993
 40
0.819663357447956
 40
0.8974054173804256
 40
0.9751006671427029
 40
1.0
 40
1.0
 40
1.0
 40
1.0
 10
612.650771512527
 20
-161.8118638336008
 30
0.0
 10
612.6448920098866
 20
-160.7947928784826
 30
0.0
 10
612.6278444728588
 20
-157.8458096347499
 30
0.0
 10
612.4384294313393
 20
-153.0594003955817
 30
0.0
 10
612.0134858803774
 20
-147.5049163401125
 30
0.0
 10
611.3755480111239
 20
-142.0966142224956
 30
0.0
 10
610.5292226559179
 20
-136.8421415447385
 30
0.0
 10
609.4748754289332
 20
-131.7513399362467
 30
0.0
 10
608.2145167553653
 20
-126.8330799459221
 30
0.0
 10
606.7501105323489
 20
-122.0962856785732
 30
0.0
 10
605.0845140714118
 20
-117.5490452796111
 30
0.0
 10
603.2194629227098
 20
-113.2010314984124
 30
0.0
 10
601.162734073902
 20
-109.054570146731
 30
0.0
 10
598.9015542466801
 20
-105.1377518958994
 30
0.0
 10
597.0447852653369
 20
-102.2309729800223
 30
0.0
 10
595.8821352408213
 20
-100.7083536549572
 30
0.0
 10
595.599964299454
 20
-100.3388194707759
 30
0.0
  0
SPLINE
  5
16C
330
1F
100
AcDbEntity
  8
0
  6
Continuous
 62
     7
370
    25
100
AcDbSpline
210
0.0
220
0.0
230
1.0
 70
     8
 71
     3
 72
    20
 73
    16
 74
     0
 42
0.00000001
 43
0.00000001
 40
0.0
 40
0.0
 40
0.0
 40
0.0
 40
0.0041061708134253
 40
0.0899473457996325
 40
0.1756821570774247
 40
0.2613110869808284
 40
0.346842759714718
 40
0.4322907589680283
 40
0.5176707805234536
 40
0.6029985075130502
 40
0.6882882675644268
 40
0.7735523477911028
 40
0.8588007813094722
 40
0.9440414282706998
 40
1.0
 40
1.0
 40
1.0
 40
1.0
 10
543.4249569624069
 20
-127.3248236638325
 30
0.0
 10
543.4628537569349
 20
-127.3652847633964
 30
0.0
 10
544.2929984920178
 20
-128.2516016457844
 30
0.0
 10
545.7564871844748
 20
-130.2035024250847
 30
0.0
 10
547.7941553303089
 20
-133.1898904765873
 30
0.0
 10
549.6278020167401
 20
-136.4229564152056
 30
0.0
 10
551.2776338321268
 20
-139.8599745802543
 30
0.0
 10
552.7332340545177
 20
-143.5016363723171
 30
0.0
 10
553.9928849295828
 20
-147.3365381473996
 30
0.0
 10
555.0531419497893
 20
-151.3559219366195
 30
0.0
 10
555.9111884109751
 20
-155.5499507431297
 30
0.0
 10
556.5658636601171
 20
-159.9077444332268
 30
0.0
 10
557.0113175093076
 20
-164.4208918213203
 30
0.0
 10
557.2328624108086
 20
-168.5371537234591
 30
0.0
 10
557.2553123943678
 20
-171.1754756070746
 30
0.0
 10
557.2642095329426
 20
-172.2210672593404
 30
0.0
  0
SPLINE
  5
16D
330
1F
100
AcDbEntity
  8
0
  6
Continuous
 62
     7
370
    25
100
AcDbSpline
210
0.0
220
0.0
230
1.0
 70
     8
 71
     3
 72
    51
 73
    47
 74
     0
 42
0.00000001
 43
0.00000001
 40
0.0
 40
0.0
 40
0.0
 40
0.0
 40
0.0123282031684577
 40
0.0357777059947144
 40
0.0592307767591312
 40
0.0826857927622087
 40
0.1061430858593558
 40
0.1296028117520129
 40
0.1530649945146827
 40
0.1765295618038956
 40
0.1999963718394217
 40
0.2234652337117042
 40
0.2469359224044065
 40
0.2704081897086251
 40
0.2938817719922002
 40
0.3173563955965423
 40
0.3408317804729588
 40
0.3643076425419891
 40
0.3877836951611034
 40
0.411259617116556
 40
0.4347350557689853
 40
0.4582097213629093
 40
0.4816833245497651
 40
0.5051555776643895
 40
0.528626196824457
 40
0.5520949052090608
 40
0.5755614379792522
 40
0.5990255494268206
 40
0.622487023093581
 40
0.6459456857923345
 40
0.6694014266761928
 40
0.6928542227278344
 40
0.7163041722353467
 40
0.7397515379125462
 40
0.7631968011775329
 40
0.7866407285077426
 40
0.810084288496788
 40
0.8335286469397396
 40
0.8569757352734483
 40
0.8804280745337192
 40
0.9038888270907494
 40
0.927361787733938
 40
0.9508512702244105
 40
0.9743618378958429
 40
0.9978978325206262
 40
1.0
 40
1.0
 40
1.0
 40
1.0
 10
557.2642095329426
 20
-172.2210672593404
 30
0.0
 10
557.2584196603267
 20
-173.0659364742244
 30
0.0
 10
557.2416168580559
 20
-175.5178333128036
 30
0.0
 10
557.0547450691731
 20
-179.6670866619392
 30
0.0
 10
556.6353410453908
 20
-184.6930996377958
 30
0.0
 10
556.0059981814344
 20
-189.8123064847822
 30
0.0
 10
555.1717375340288
 20
-195.0094227386736
 30
0.0
 10
554.1335633398852
 20
-200.2718669430618
 30
0.0
 10
552.8942291701459
 20
-205.5861348647697
 30
0.0
 10
551.4566891221759
 20
-210.9387789761732
 30
0.0
 10
549.8245031291992
 20
-216.3161948285174
 30
0.0
 10
548.0017163323316
 20
-221.7047263033562
 30
0.0
 10
545.992877477737
 20
-227.0906845799951
 30
0.0
 10
543.803018379436
 20
-232.4603894613767
 30
0.0
 10
541.4376423165685
 20
-237.8002040034432
 30
0.0
 10
538.9027086666612
 20
-243.096570280772
 30
0.0
 10
536.2046172741888
 20
-248.336044218556
 30
0.0
 10
533.3501916905807
 20
-253.505330057117
 30
0.0
 10
530.3466629784645
 20
-258.5913119186806
 30
0.0
 10
527.2016529651397
 20
-263.5810853485678
 30
0.0
 10
523.9231526148575
 20
-268.4619952456685
 30
0.0
 10
520.5195001046352
 20
-273.2216706010845
 30
0.0
 10
516.9993579426126
 20
-277.8480580079792
 30
0.0
 10
513.3716941355651
 20
-282.329448374793
 30
0.0
 10
509.6457597642366
 20
-286.6545074948423
 30
0.0
 10
505.8310657777008
 20
-290.8123059667121
 30
0.0
 10
501.9373589781513
 20
-294.792348435549
 30
0.0
 10
497.9745971418145
 20
-298.5846021230022
 30
0.0
 10
493.95292319017
 20
-302.1795246030897
 30
0.0
 10
489.882638287152
 20
-305.5680907593146
 30
0.0
 10
485.7741736902428
 20
-308.7418188257512
 30
0.0
 10
481.6380611403112
 20
-311.6927953384414
 30
0.0
 10
477.4849015007729
 20
-314.4136987895797
 30
0.0
 10
473.3253314211693
 20
-316.8978214171519
 30
0.0
 10
469.169987437536
 20
-319.1390892007466
 30
0.0
 10
465.0294778342188
 20
-321.1320722263346
 30
0.0
 10
460.9143537246096
 20
-322.8719994561973
 30
0.0
 10
456.8350605699621
 20
-324.3547572413121
 30
0.0
 10
452.8018493953841
 20
-325.5769729326916
 30
0.0
 10
448.8248486775312
 20
-326.5357128319582
 30
0.0
 10
444.9135503067948
 20
-327.2295577587487
 30
0.0
 10
441.0785895582266
 20
-327.6544608417243
 30
0.0
 10
437.3249425188959
 20
-327.8190655610992
 30
0.0
 10
433.6772609995917
 20
-327.6872780500826
 30
0.0
 10
431.1770327433762
 20
-327.4822285735369
 30
0.0
 10
429.9297807768367
 20
-327.244805516889
 30
0.0
 10
429.8275139875094
 20
-327.22533832472
 30
0.0
  0
SPLINE
  5
16E
330
1F
100
AcDbEntity
  8
0
  6
Continuous
 62
     7
370
    25
100
AcDbSpline
210
0.0
220
0.0
230
1.0
 70
     8
 71
     3
 72
    13
 73
     9
 74
     0
 42
0.00000001
 43
0.00000001
 40
0.0
 40
0.0
 40
0.0
 40
0.0
 40
0.0213876440744202
 40
0.2552341454925166
 40
0.4603303484884342
 40
0.678418761583125
 40
0.8906960965911868
 40
1.0
 40
1.0
 40
1.0
 40
1.0
 10
570.3885167435405
 20
-219.2119768909895
 30
0.0
 10
570.4145807774454
 20
-219.2239533320976
 30
0.0
 10
570.7256216475236
 20
-219.3668768210821
 30
0.0
 10
571.1625793094984
 20
-219.8429403969651
 30
0.0
 10
571.7136679511018
 20
-220.6810907535339
 30
0.0
 10
572.0858954809074
 20
-221.7468003458489
 30
0.0
 10
572.2614621690789
 20
-222.8180560844733
 30
0.0
 10
572.2769928116193
 20
-223.5294202233102
 30
0.0
 10
572.2822716017018
 20
-223.7712094442943
 30
0.0
  0
SPLINE
  5
16F
330
1F
100
AcDbEntity
  8
0
  6
Continuous
 62
     7
370
    25
100
AcDbSpline
210
0.0
220
0.0
230
1.0
 70
     8
 71
     3
 72
    22
 73
    18
 74
     0
 42
0.00000001
 43
0.00000001
 40
0.0
 40
0.0
 40
0.0
 40
0.0
 40
0.0357957841880403
 40
0.1045261594770771
 40
0.1734959821004397
 40
0.2426747877289096
 40
0.312016247722651
 40
0.3814428720990989
 40
0.4508656940685197
 40
0.5201663738648551
 40
0.5892547153370089
 40
0.6580502909886724
 40
0.7265115741575885
 40
0.7947102482258771
 40
0.8628985641336241
 40
0.9317178103463468
 40
1.0
 40
1.0
 40
1.0
 40
1.0
 10
572.2822716017018
 20
-223.7712094442943
 30
0.0
 10
572.2769681345109
 20
-224.0207679554268
 30
0.0
 10
572.2614816444125
 20
-224.7494960256507
 30
0.0
 10
572.0861467864255
 20
-226.0514587273694
 30
0.0
 10
571.6908028021776
 20
-227.666954568031
 30
0.0
 10
571.1036947661272
 20
-229.3145215037322
 30
0.0
 10
570.3422052874139
 20
-230.9451358905852
 30
0.0
 10
569.4254506637565
 20
-232.5136235774493
 30
0.0
 10
568.3792805223782
 20
-233.9755147051649
 30
0.0
 10
567.2340354747802
 20
-235.2899857597354
 30
0.0
 10
566.0241511886454
 20
-236.421012585821
 30
0.0
 10
564.7868775313972
 20
-237.339240025233
 30
0.0
 10
563.5615922898572
 20
-238.0228590036737
 30
0.0
 10
562.3867317008522
 20
-238.4615668995592
 30
0.0
 10
561.3017792243729
 20
-238.6495245227494
 30
0.0
 10
560.3317506138618
 20
-238.6175950755424
 30
0.0
 10
559.8009409782314
 20
-238.4158236925972
 30
0.0
 10
559.5365758096169
 20
-238.3153331926263
 30
0.0
  0
SPLINE
  5
170
330
1F
100
AcDbEntity
  8
0
  6
Continuous
 62
     7
370
    25
100
AcDbSpline
210
0.0
220
0.0
230
1.0
 70
     8
 71
     3
 72
    13
 73
     9
 74
     0
 42
0.00000001
 43
0.00000001
 40
0.0
 40
0.0
 40
0.0
 40
0.0
 40
0.0213876440744917
 40
0.2552341454925909
 40
0.4603303484885224
 40
0.67841876158322
 40
0.8906960965912933
 40
0.9999999999999999
 40
0.9999999999999999
 40
0.9999999999999999
 40
0.9999999999999999
 10
532.2127075909154
 20
-285.3344177693237
 30
0.0
 10
532.2387716248206
 20
-285.346394210432
 30
0.0
 10
532.5498124948987
 20
-285.4893176994165
 30
0.0
 10
532.9867701568735
 20
-285.9653812752996
 30
0.0
 10
533.5378587984769
 20
-286.8035316318686
 30
0.0
 10
533.9100863282823
 20
-287.8692412241837
 30
0.0
 10
534.085653016454
 20
-288.9404969628079
 30
0.0
 10
534.1011836589942
 20
-289.6518611016446
 30
0.0
 10
534.1064624490767
 20
-289.8936503226285
 30
0.0
  0
SPLINE
  5
171
330
1F
100
AcDbEntity
  8
0
  6
Continuous
 62
     7
370
    25
100
AcDbSpline
210
0.0
220
0.0
230
1.0
 70
     8
 71
     3
 72
    22
 73
    18
 74
     0
 42
0.00000001
 43
0.00000001
 40
0.0
 40
0.0
 40
0.0
 40
0.0
 40
0.0357957841880387
 40
0.1045261594770968
 40
0.1734959821004524
 40
0.2426747877289275
 40
0.3120162477226658
 40
0.3814428720991135
 40
0.4508656940685349
 40
0.5201663738648704
 40
0.5892547153370121
 40
0.6580502909886815
 40
0.7265115741575994
 40
0.7947102482258861
 40
0.86289856413363
 40
0.9317178103463538
 40
1.0
 40
1.0
 40
1.0
 40
1.0
 10
534.1064624490767
 20
-289.8936503226285
 30
0.0
 10
534.1011589818858
 20
-290.143208833761
 30
0.0
 10
534.0856724917872
 20
-290.871936903985
 30
0.0
 10
533.9103376338004
 20
-292.1738996057039
 30
0.0
 10
533.5149936495523
 20
-293.7893954463657
 30
0.0
 10
532.9278856135019
 20
-295.436962382067
 30
0.0
 10
532.1663961347884
 20
-297.06757676892
 30
0.0
 10
531.249641511131
 20
-298.6360644557841
 30
0.0
 10
530.2034713697525
 20
-300.0979555834997
 30
0.0
 10
529.0582263221546
 20
-301.4124266380701
 30
0.0
 10
527.8483420360199
 20
-302.5434534641556
 30
0.0
 10
526.6110683787716
 20
-303.4616809035675
 30
0.0
 10
525.3857831372316
 20
-304.1452998820082
 30
0.0
 10
524.2109225482266
 20
-304.5840077778935
 30
0.0
 10
523.1259700717474
 20
-304.7719654010837
 30
0.0
 10
522.1559414612361
 20
-304.7400359538765
 30
0.0
 10
521.6251318256059
 20
-304.5382645709313
 30
0.0
 10
521.3607666569915
 20
-304.4377740709603
 30
0.0
  0
SPLINE
  5
172
330
1F
100
AcDbEntity
  8
0
  6
Continuous
 62
     7
370
    25
100
AcDbSpline
210
0.0
220
0.0
230
1.0
 70
     8
 71
     3
 72
    62
 73
    58
 74
     0
 42
0.00000001
 43
0.00000001
 40
0.0
 40
0.0
 40
0.0
 40
0.0
 40
0.0050252527839532
 40
0.0237218641408346
 40
0.0423951014560857
 40
0.0610462016745998
 40
0.0796777654508706
 40
0.0982930914436366
 40
0.1168956438484375
 40
0.1354886917086187
 40
0.1540751055751406
 40
0.1726572739491828
 40
0.1912370988720728
 40
0.2098160367676881
 40
0.228394931541344
 40
0.2469745465174918
 40
0.2655554631031378
 40
0.2841380476283674
 40
0.3027225012964117
 40
0.3213089009670402
 40
0.3398972314987736
 40
0.3584874108228457
 40
0.3770793090133472
 40
0.3956727625392736
 40
0.414267584731895
 40
0.4328635733291866
 40
0.451460515796042
 40
0.4700581929771274
 40
0.4886563815225527
 40
0.5072548554348908
 40
0.525853387017205
 40
0.5444516902317493
 40
0.5630495166757505
 40
0.5816466368362214
 40
0.6002428218727416
 40
0.6188378448660741
 40
0.6374314828244212
 40
0.6560235197635472
 40
0.6746137512644663
 40
0.6932019910204551
 40
0.7117880800196702
 40
0.7303718991688513
 40
0.7489533863397962
 40
0.7675325589938303
 40
0.7861095436695936
 40
0.8046846136313675
 40
0.8232582357400491
 40
0.8418311269209359
 40
0.860404021951103
 40
0.878978122720748
 40
0.8975551435579493
 40
0.9161372866155493
 40
0.9347272668273071
 40
0.9533282756497911
 40
0.9719438456579647
 40
0.9905775753013684
 40
1.0
 40
1.0
 40
1.0
 40
1.0
 10
422.3711170403782
 20
-323.0508782654188
 30
0.0
 10
422.1662245447784
 20
-322.8125985358125
 30
0.0
 10
421.1990230619764
 20
-321.687791562662
 30
0.0
 10
419.64428241463
 20
-319.4428944537698
 30
0.0
 10
417.7198744992943
 20
-316.318829061665
 30
0.0
 10
415.996184868033
 20
-312.9617834853519
 30
0.0
 10
414.4602244105286
 20
-309.4034088767952
 30
0.0
 10
413.1201653290656
 20
-305.646260872532
 30
0.0
 10
411.9780049822726
 20
-301.701198376922
 30
0.0
 10
411.0368858112351
 20
-297.5774169078252
 30
0.0
 10
410.2991204404459
 20
-293.2851402640324
 30
0.0
 10
409.7666912606963
 20
-288.8349060768553
 30
0.0
 10
409.4410836544942
 20
-284.2377448106908
 30
0.0
 10
409.3233000578375
 20
-279.5051240869588
 30
0.0
 10
409.4138261424512
 20
-274.6489132075984
 30
0.0
 10
409.7126198941613
 20
-269.6813360328037
 30
0.0
 10
410.2191067284305
 20
-264.6149120522719
 30
0.0
 10
410.9321766413913
 20
-259.4624373620527
 30
0.0
 10
411.8501825597971
 20
-254.2369526090222
 30
0.0
 10
412.9709422739921
 20
-248.9517029853253
 30
0.0
 10
414.2917431239577
 20
-243.6200987587617
 30
0.0
 10
415.8093489668609
 20
-238.2556764608838
 30
0.0
 10
417.5200090337303
 20
-232.872060774056
 30
0.0
 10
419.4194683851326
 20
-227.4829270894594
 30
0.0
 10
421.5029797502596
 20
-222.1019646879755
 30
0.0
 10
423.7653165928244
 20
-216.7428404932105
 30
0.0
 10
426.2007872897093
 20
-211.4191633549521
 30
0.0
 10
428.8032503383413
 20
-206.1444488347489
 30
0.0
 10
431.5661305294667
 20
-200.9320844791483
 30
0.0
 10
434.4824360348447
 20
-195.7952955802132
 30
0.0
 10
437.5447732306752
 20
-190.7471166064203
 30
0.0
 10
440.7453669139935
 20
-185.8003540088881
 30
0.0
 10
444.0760809357018
 20
-180.9675514712167
 30
0.0
 10
447.5284424806044
 20
-176.2609529450266
 30
0.0
 10
451.0936614308687
 20
-171.692474747309
 30
0.0
 10
454.7626512483001
 20
-167.2736763002746
 30
0.0
 10
458.5260517163863
 20
-163.0157298235738
 30
0.0
 10
462.3742524721906
 20
-158.9293906881647
 30
0.0
 10
466.2974173667152
 20
-155.0249684616268
 30
0.0
 10
470.2855097200207
 20
-151.3122986805183
 30
0.0
 10
474.3283185716831
 20
-147.8007154001475
 30
0.0
 10
478.4154860700496
 20
-144.4990245966342
 30
0.0
 10
482.5365361884583
 20
-141.415478549499
 30
0.0
 10
486.6809050194989
 20
-138.5577513762812
 30
0.0
 10
490.8379728953241
 20
-135.9329161105021
 30
0.0
 10
494.997098779632
 20
-133.547423463409
 30
0.0
 10
499.1476566941361
 20
-131.4070841538066
 30
0.0
 10
503.2790542342179
 20
-129.5170613454779
 30
0.0
 10
507.3807768633942
 20
-127.8818611895098
 30
0.0
 10
511.4424543477162
 20
-126.5052830402505
 30
0.0
 10
515.4538649742565
 20
-125.3905614066033
 30
0.0
 10
519.4052037879974
 20
-124.5398420779676
 30
0.0
 10
523.2862535947984
 20
-123.9562325059961
 30
0.0
 10
527.0896405310409
 20
-123.6362769494292
 30
0.0
 10
530.7988005658392
 20
-123.5982401307176
 30
0.0
 10
533.8327967502778
 20
-123.7471637428251
 30
0.0
 10
535.5841144020102
 20
-124.0107227215908
 30
0.0
 10
536.1722797826129
 20
-124.099236799493
 30
0.0
  0
SPLINE
  5
173
330
1F
100
AcDbEntity
  8
0
  6
Continuous
 62
     7
370
    25
100
AcDbSpline
210
0.0
220
0.0
230
1.0
 70
     8
 71
     3
 72
    13
 73
     9
 74
     0
 42
0.00000001
 43
0.00000001
 40
0.0
 40
0.0
 40
0.0
 40
0.0
 40
0.0213876440744445
 40
0.2552341454925278
 40
0.4603303484884681
 40
0.6784187615831578
 40
0.8906960965912412
 40
1.0
 40
1.0
 40
1.0
 40
1.0
 10
584.3618327034295
 20
-150.9254684136808
 30
0.0
 10
584.3878967373345
 20
-150.9374448547889
 30
0.0
 10
584.6989376074125
 20
-151.0803683437735
 30
0.0
 10
585.1358952693874
 20
-151.5564319196565
 30
0.0
 10
585.686983910991
 20
-152.3945822762253
 30
0.0
 10
586.0592114407964
 20
-153.4602918685404
 30
0.0
 10
586.234778128968
 20
-154.5315476071648
 30
0.0
 10
586.2503087715083
 20
-155.2429117460015
 30
0.0
 10
586.2555875615909
 20
-155.4847009669855
 30
0.0
  0
SPLINE
  5
174
330
1F
100
AcDbEntity
  8
0
  6
Continuous
 62
     7
370
    25
100
AcDbSpline
210
0.0
220
0.0
230
1.0
 70
     8
 71
     3
 72
    22
 73
    18
 74
     0
 42
0.00000001
 43
0.00000001
 40
0.0
 40
0.0
 40
0.0
 40
0.0
 40
0.0357957841880393
 40
0.104526159477098
 40
0.1734959821004502
 40
0.2426747877289228
 40
0.3120162477226581
 40
0.3814428720991135
 40
0.4508656940685346
 40
0.5201663738648685
 40
0.5892547153370191
 40
0.6580502909886844
 40
0.7265115741575988
 40
0.7947102482258832
 40
0.8628985641336266
 40
0.9317178103463449
 40
1.0
 40
1.0
 40
1.0
 40
1.0
 10
586.2555875615909
 20
-155.4847009669855
 30
0.0
 10
586.2502840943998
 20
-155.7342594781181
 30
0.0
 10
586.2347976043014
 20
-156.4629875483421
 30
0.0
 10
586.0594627463145
 20
-157.7649502500609
 30
0.0
 10
585.6641187620663
 20
-159.3804460907228
 30
0.0
 10
585.077010726016
 20
-161.0280130264238
 30
0.0
 10
584.3155212473026
 20
-162.6586274132769
 30
0.0
 10
583.3987666236452
 20
-164.2271151001411
 30
0.0
 10
582.3525964822668
 20
-165.6890062278567
 30
0.0
 10
581.2073514346687
 20
-167.0034772824272
 30
0.0
 10
579.9974671485339
 20
-168.1345041085127
 30
0.0
 10
578.7601934912857
 20
-169.0527315479246
 30
0.0
 10
577.5349082497457
 20
-169.7363505263653
 30
0.0
 10
576.3600476607406
 20
-170.1750584222506
 30
0.0
 10
575.2750951842615
 20
-170.3630160454407
 30
0.0
 10
574.3050665737503
 20
-170.3310865982337
 30
0.0
 10
573.7742569381202
 20
-170.1293152152884
 30
0.0
 10
573.5098917695057
 20
-170.0288247153174
 30
0.0
  0
SPLINE
  5
175
330
1F
100
AcDbEntity
  8
0
  6
Continuous
 62
     7
370
    25
100
AcDbSpline
210
0.0
220
0.0
230
1.0
 70
     8
 71
     3
 72
    13
 73
     9
 74
     0
 42
0.00000001
 43
0.00000001
 40
0.0
 40
0.0
 40
0.0
 40
0.0
 40
0.0213876440744951
 40
0.2552341454925902
 40
0.4603303484885139
 40
0.6784187615832019
 40
0.8906960965912778
 40
1.0
 40
1.0
 40
1.0
 40
1.0
 10
480.0635824784047
 20
-331.5753364137591
 30
0.0
 10
480.0896465123098
 20
-331.5873128548673
 30
0.0
 10
480.400687382388
 20
-331.7302363438519
 30
0.0
 10
480.8376450443627
 20
-332.206299919735
 30
0.0
 10
481.3887336859662
 20
-333.0444502763039
 30
0.0
 10
481.7609612157715
 20
-334.110159868619
 30
0.0
 10
481.9365279039432
 20
-335.1814156072433
 30
0.0
 10
481.9520585464834
 20
-335.89277974608
 30
0.0
 10
481.957337336566
 20
-336.1345689670639
 30
0.0
  0
SPLINE
  5
176
330
1F
100
AcDbEntity
  8
0
  6
Continuous
 62
     7
370
    25
100
AcDbSpline
210
0.0
220
0.0
230
1.0
 70
     8
 71
     3
 72
    22
 73
    18
 74
     0
 42
0.00000001
 43
0.00000001
 40
0.0
 40
0.0
 40
0.0
 40
0.0
 40
0.0357957841880389
 40
0.1045261594770929
 40
0.1734959821004478
 40
0.242674787728919
 40
0.3120162477226609
 40
0.3814428720991102
 40
0.4508656940685309
 40
0.5201663738648626
 40
0.5892547153370158
 40
0.6580502909886824
 40
0.7265115741575978
 40
0.7947102482258819
 40
0.8628985641336245
 40
0.9317178103463456
 40
0.9999999999999999
 40
0.9999999999999999
 40
0.9999999999999999
 40
0.9999999999999999
 10
481.957337336566
 20
-336.1345689670639
 30
0.0
 10
481.952033869375
 20
-336.3841274781964
 30
0.0
 10
481.9365473792766
 20
-337.1128555484204
 30
0.0
 10
481.7612125212896
 20
-338.4148182501392
 30
0.0
 10
481.3658685370415
 20
-340.030314090801
 30
0.0
 10
480.7787605009912
 20
-341.6778810265022
 30
0.0
 10
480.0172710222778
 20
-343.3084954133552
 30
0.0
 10
479.1005163986204
 20
-344.8769831002194
 30
0.0
 10
478.0543462572419
 20
-346.338874227935
 30
0.0
 10
476.9091012096438
 20
-347.6533452825054
 30
0.0
 10
475.6992169235092
 20
-348.7843721085909
 30
0.0
 10
474.4619432662609
 20
-349.702599548003
 30
0.0
 10
473.2366580247209
 20
-350.3862185264436
 30
0.0
 10
472.0617974357159
 20
-350.8249264223289
 30
0.0
 10
470.9768449592368
 20
-351.0128840455191
 30
0.0
 10
470.0068163487255
 20
-350.9809545983119
 30
0.0
 10
469.4760067130952
 20
-350.7791832153667
 30
0.0
 10
469.2116415444808
 20
-350.6786927153958
 30
0.0
  0
SPLINE
  5
177
330
1F
100
AcDbEntity
  8
0
  6
Continuous
 62
     7
370
    25
100
AcDbSpline
210
0.0
220
0.0
230
1.0
 70
     8
 71
     3
 72
    13
 73
     9
 74
     0
 42
0.00000001
 43
0.00000001
 40
0.0
 40
0.0
 40
0.0
 40
0.0
 40
0.0213876440744938
 40
0.2552341454925776
 40
0.4603303484885228
 40
0.6784187615832252
 40
0.8906960965912855
 40
1.0
 40
1.0
 40
1.0
 40
1.0
 10
570.3885167435452
 20
-98.77220713783346
 30
0.0
 10
570.4145807774503
 20
-98.78418357894164
 30
0.0
 10
570.7256216475284
 20
-98.92710706792613
 30
0.0
 10
571.1625793095033
 20
-99.40317064380932
 30
0.0
 10
571.7136679511067
 20
-100.2413210003783
 30
0.0
 10
572.0858954809122
 20
-101.3070305926933
 30
0.0
 10
572.2614621690835
 20
-102.3782863313177
 30
0.0
 10
572.2769928116239
 20
-103.0896504701543
 30
0.0
 10
572.2822716017065
 20
-103.3314396911381
 30
0.0
  0
SPLINE
  5
178
330
1F
100
AcDbEntity
  8
0
  6
Continuous
 62
     7
370
    25
100
AcDbSpline
210
0.0
220
0.0
230
1.0
 70
     8
 71
     3
 72
    22
 73
    18
 74
     0
 42
0.00000001
 43
0.00000001
 40
0.0
 40
0.0
 40
0.0
 40
0.0
 40
0.0357957841880394
 40
0.1045261594770985
 40
0.1734959821004507
 40
0.2426747877289226
 40
0.3120162477226651
 40
0.381442872099112
 40
0.4508656940685333
 40
0.5201663738648667
 40
0.5892547153370142
 40
0.6580502909886831
 40
0.7265115741575985
 40
0.7947102482258843
 40
0.8628985641336282
 40
0.9317178103463507
 40
1.0
 40
1.0
 40
1.0
 40
1.0
 10
572.2822716017065
 20
-103.3314396911381
 30
0.0
 10
572.2769681345154
 20
-103.5809982022707
 30
0.0
 10
572.2614816444171
 20
-104.3097262724947
 30
0.0
 10
572.08614678643
 20
-105.6116889742136
 30
0.0
 10
571.6908028021821
 20
-107.2271848148753
 30
0.0
 10
571.1036947661316
 20
-108.8747517505765
 30
0.0
 10
570.3422052874183
 20
-110.5053661374295
 30
0.0
 10
569.4254506637608
 20
-112.0738538242937
 30
0.0
 10
568.3792805223824
 20
-113.5357449520093
 30
0.0
 10
567.2340354747845
 20
-114.8502160065797
 30
0.0
 10
566.0241511886497
 20
-115.9812428326652
 30
0.0
 10
564.7868775314014
 20
-116.8994702720772
 30
0.0
 10
563.5615922898613
 20
-117.5830892505179
 30
0.0
 10
562.3867317008564
 20
-118.0217971464032
 30
0.0
 10
561.3017792243771
 20
-118.2097547695933
 30
0.0
 10
560.331750613866
 20
-118.1778253223863
 30
0.0
 10
559.8009409782356
 20
-117.976053939441
 30
0.0
 10
559.5365758096212
 20
-117.8755634394701
 30
0.0
  0
SPLINE
  5
179
330
1F
100
AcDbEntity
  8
0
  6
Continuous
 62
     7
370
    25
100
AcDbSpline
210
0.0
220
0.0
230
1.0
 70
     8
 71
     3
 72
    13
 73
     9
 74
     0
 42
0.00000001
 43
0.00000001
 40
0.0
 40
0.0
 40
0.0
 40
0.0
 40
0.0213876440744294
 40
0.2552341454925339
 40
0.4603303484884577
 40
0.6784187615831422
 40
0.8906960965912282
 40
1.0
 40
1.0
 40
1.0
 40
1.0
 10
427.9144573658951
 20
-345.5445160162459
 30
0.0
 10
427.9405213998002
 20
-345.556492457354
 30
0.0
 10
428.2515622698783
 20
-345.6994159463385
 30
0.0
 10
428.688519931853
 20
-346.1754795222216
 30
0.0
 10
429.2396085734566
 20
-347.0136298787904
 30
0.0
 10
429.611836103262
 20
-348.0793394711055
 30
0.0
 10
429.7874027914336
 20
-349.1505952097298
 30
0.0
 10
429.802933433974
 20
-349.8619593485668
 30
0.0
 10
429.8082122240565
 20
-350.1037485695508
 30
0.0
  0
SPLINE
  5
17A
330
1F
100
AcDbEntity
  8
0
  6
Continuous
 62
     7
370
    25
100
AcDbSpline
210
0.0
220
0.0
230
1.0
 70
     8
 71
     3
 72
    22
 73
    18
 74
     0
 42
0.00000001
 43
0.00000001
 40
0.0
 40
0.0
 40
0.0
 40
0.0
 40
0.0357957841880388
 40
0.1045261594770928
 40
0.1734959821004476
 40
0.2426747877289172
 40
0.3120162477226617
 40
0.38144287209911
 40
0.450865694068531
 40
0.5201663738648623
 40
0.5892547153370142
 40
0.6580502909886796
 40
0.7265115741575946
 40
0.7947102482258785
 40
0.8628985641336208
 40
0.9317178103463414
 40
1.0
 40
1.0
 40
1.0
 40
1.0
 10
429.8082122240565
 20
-350.1037485695507
 30
0.0
 10
429.8029087568655
 20
-350.3533070806832
 30
0.0
 10
429.7874222667671
 20
-351.0820351509072
 30
0.0
 10
429.6120874087802
 20
-352.383997852626
 30
0.0
 10
429.2167434245321
 20
-353.9994936932878
 30
0.0
 10
428.6296353884817
 20
-355.647060628989
 30
0.0
 10
427.8681459097683
 20
-357.2776750158421
 30
0.0
 10
426.9513912861109
 20
-358.8461627027062
 30
0.0
 10
425.9052211447325
 20
-360.3080538304218
 30
0.0
 10
424.7599760971344
 20
-361.6225248849922
 30
0.0
 10
423.5500918109997
 20
-362.7535517110778
 30
0.0
 10
422.3128181537514
 20
-363.6717791504898
 30
0.0
 10
421.0875329122115
 20
-364.3553981289303
 30
0.0
 10
419.9126723232065
 20
-364.7941060248157
 30
0.0
 10
418.8277198467273
 20
-364.9820636480059
 30
0.0
 10
417.8576912362161
 20
-364.9501342007988
 30
0.0
 10
417.3268816005858
 20
-364.7483628178535
 30
0.0
 10
417.0625164319713
 20
-364.6478723178826
 30
0.0
  0
SPLINE
  5
17B
330
1F
100
AcDbEntity
  8
0
  6
Continuous
 62
     7
370
    25
100
AcDbSpline
210
0.0
220
0.0
230
1.0
 70
     8
 71
     3
 72
    13
 73
     9
 74
     0
 42
0.00000001
 43
0.00000001
 40
0.0
 40
0.0
 40
0.0
 40
0.0
 40
0.021387644074454
 40
0.2552341454925434
 40
0.460330348488477
 40
0.6784187615831679
 40
0.8906960965912528
 40
1.0
 40
1.0
 40
1.0
 40
1.0
 10
532.2127075909234
 20
-76.72661730496009
 30
0.0
 10
532.2387716248285
 20
-76.73859374606823
 30
0.0
 10
532.5498124949066
 20
-76.88151723505263
 30
0.0
 10
532.9867701568813
 20
-77.35758081093577
 30
0.0
 10
533.5378587984849
 20
-78.19573116750459
 30
0.0
 10
533.9100863282903
 20
-79.2614407598198
 30
0.0
 10
534.085653016462
 20
-80.33269649844408
 30
0.0
 10
534.1011836590021
 20
-81.04406063728086
 30
0.0
 10
534.1064624490848
 20
-81.28584985826481
 30
0.0
  0
SPLINE
  5
17C
330
1F
100
AcDbEntity
  8
0
  6
Continuous
 62
     7
370
    25
100
AcDbSpline
210
0.0
220
0.0
230
1.0
 70
     8
 71
     3
 72
    22
 73
    18
 74
     0
 42
0.00000001
 43
0.00000001
 40
0.0
 40
0.0
 40
0.0
 40
0.0
 40
0.0357957841880393
 40
0.1045261594770877
 40
0.1734959821004446
 40
0.2426747877289188
 40
0.3120162477226598
 40
0.3814428720991105
 40
0.4508656940685328
 40
0.5201663738648663
 40
0.5892547153370148
 40
0.6580502909886861
 40
0.7265115741576024
 40
0.7947102482258886
 40
0.8628985641336365
 40
0.9317178103463521
 40
1.0
 40
1.0
 40
1.0
 40
1.0
 10
534.1064624490848
 20
-81.28584985826481
 30
0.0
 10
534.1011589818938
 20
-81.53540836939735
 30
0.0
 10
534.0856724917954
 20
-82.26413643962132
 30
0.0
 10
533.9103376338084
 20
-83.56609914134003
 30
0.0
 10
533.5149936495604
 20
-85.18159498200184
 30
0.0
 10
532.92788561351
 20
-86.82916191770302
 30
0.0
 10
532.1663961347965
 20
-88.45977630455606
 30
0.0
 10
531.2496415111392
 20
-90.02826399142025
 30
0.0
 10
530.2034713697608
 20
-91.49015511913584
 30
0.0
 10
529.0582263221627
 20
-92.80462617370627
 30
0.0
 10
527.848342036028
 20
-93.93565299979181
 30
0.0
 10
526.6110683787797
 20
-94.85388043920376
 30
0.0
 10
525.3857831372397
 20
-95.53749941764447
 30
0.0
 10
524.2109225482347
 20
-95.97620731352988
 30
0.0
 10
523.1259700717555
 20
-96.16416493671997
 30
0.0
 10
522.1559414612443
 20
-96.13223548951288
 30
0.0
 10
521.6251318256141
 20
-95.9304641065677
 30
0.0
 10
521.3607666569997
 20
-95.82997360659672
 30
0.0
  0
SPLINE
  5
17D
330
1F
100
AcDbEntity
  8
0
  6
Continuous
 62
     7
370
    25
100
AcDbSpline
210
0.0
220
0.0
230
1.0
 70
     8
 71
     3
 72
    13
 73
     9
 74
     0
 42
0.00000001
 43
0.00000001
 40
0.0
 40
0.0
 40
0.0
 40
0.0
 40
0.0213876440744553
 40
0.2552341454925434
 40
0.460330348488477
 40
0.6784187615831617
 40
0.8906960965912398
 40
1.0
 40
1.0
 40
1.0
 40
1.0
 10
389.7386482132734
 20
-323.4989261833726
 30
0.0
 10
389.7647122471785
 20
-323.5109026244808
 30
0.0
 10
390.0757531172565
 20
-323.6538261134654
 30
0.0
 10
390.5127107792314
 20
-324.1298896893484
 30
0.0
 10
391.0637994208349
 20
-324.9680400459172
 30
0.0
 10
391.4360269506403
 20
-326.0337496382323
 30
0.0
 10
391.6115936388119
 20
-327.1050053768566
 30
0.0
 10
391.6271242813523
 20
-327.8163695156934
 30
0.0
 10
391.6324030714348
 20
-328.0581587366774
 30
0.0
  0
SPLINE
  5
17E
330
1F
100
AcDbEntity
  8
0
  6
Continuous
 62
     7
370
    25
100
AcDbSpline
210
0.0
220
0.0
230
1.0
 70
     8
 71
     3
 72
    22
 73
    18
 74
     0
 42
0.00000001
 43
0.00000001
 40
0.0
 40
0.0
 40
0.0
 40
0.0
 40
0.0357957841880396
 40
0.1045261594770984
 40
0.1734959821004543
 40
0.2426747877289273
 40
0.3120162477226624
 40
0.3814428720991175
 40
0.450865694068536
 40
0.5201663738648687
 40
0.5892547153370182
 40
0.6580502909886883
 40
0.7265115741576043
 40
0.794710248225885
 40
0.862898564133631
 40
0.9317178103463514
 40
1.0
 40
1.0
 40
1.0
 40
1.0
 10
391.6324030714348
 20
-328.0581587366774
 30
0.0
 10
391.6270996042438
 20
-328.3077172478099
 30
0.0
 10
391.6116131141454
 20
-329.036445318034
 30
0.0
 10
391.4362782561584
 20
-330.3384080197528
 30
0.0
 10
391.0409342719103
 20
-331.9539038604146
 30
0.0
 10
390.4538262358599
 20
-333.6014707961157
 30
0.0
 10
389.6923367571466
 20
-335.2320851829688
 30
0.0
 10
388.7755821334891
 20
-336.8005728698329
 30
0.0
 10
387.7294119921107
 20
-338.2624639975485
 30
0.0
 10
386.5841669445126
 20
-339.5769350521189
 30
0.0
 10
385.374282658378
 20
-340.7079618782044
 30
0.0
 10
384.1370090011297
 20
-341.6261893176164
 30
0.0
 10
382.9117237595897
 20
-342.309808296057
 30
0.0
 10
381.7368631705847
 20
-342.7485161919425
 30
0.0
 10
380.6519106941055
 20
-342.9364738151325
 30
0.0
 10
379.6818820835943
 20
-342.9045443679254
 30
0.0
 10
379.151072447964
 20
-342.7027729849802
 30
0.0
 10
378.8867072793496
 20
-342.6022824850093
 30
0.0
  0
SPLINE
  5
17F
330
1F
100
AcDbEntity
  8
0
  6
Continuous
 62
     7
370
    25
100
AcDbSpline
210
0.0
220
0.0
230
1.0
 70
     8
 71
     3
 72
    13
 73
     9
 74
     0
 42
0.00000001
 43
0.00000001
 40
0.0
 40
0.0
 40
0.0
 40
0.0
 40
0.0213876440743913
 40
0.2552341454924554
 40
0.4603303484883858
 40
0.6784187615830878
 40
0.8906960965911627
 40
1.0
 40
1.0
 40
1.0
 40
1.0
 10
480.0635824784139
 20
-90.6957969074468
 30
0.0
 10
480.0896465123189
 20
-90.70777334855492
 30
0.0
 10
480.4006873823969
 20
-90.85069683753946
 30
0.0
 10
480.8376450443716
 20
-91.32676041342216
 30
0.0
 10
481.3887336859751
 20
-92.16491076999105
 30
0.0
 10
481.7609612157806
 20
-93.23062036230608
 30
0.0
 10
481.9365279039524
 20
-94.30187610093047
 30
0.0
 10
481.9520585464927
 20
-95.01324023976748
 30
0.0
 10
481.9573373365753
 20
-95.25502946075163
 30
0.0
  0
SPLINE
  5
180
330
1F
100
AcDbEntity
  8
0
  6
Continuous
 62
     7
370
    25
100
AcDbSpline
210
0.0
220
0.0
230
1.0
 70
     8
 71
     3
 72
    22
 73
    18
 74
     0
 42
0.00000001
 43
0.00000001
 40
0.0
 40
0.0
 40
0.0
 40
0.0
 40
0.0357957841880399
 40
0.1045261594770958
 40
0.1734959821004537
 40
0.2426747877289258
 40
0.3120162477226666
 40
0.3814428720991211
 40
0.4508656940685421
 40
0.5201663738648749
 40
0.5892547153370289
 40
0.6580502909886897
 40
0.7265115741576125
 40
0.794710248225891
 40
0.8628985641336346
 40
0.9317178103463576
 40
1.0
 40
1.0
 40
1.0
 40
1.0
 10
481.9573373365753
 20
-95.25502946075163
 30
0.0
 10
481.9520338693843
 20
-95.50458797188419
 30
0.0
 10
481.9365473792859
 20
-96.23331604210813
 30
0.0
 10
481.7612125212989
 20
-97.5352787438269
 30
0.0
 10
481.3658685370509
 20
-99.15077458448876
 30
0.0
 10
480.7787605010004
 20
-100.7983415201899
 30
0.0
 10
480.0172710222871
 20
-102.4289559070429
 30
0.0
 10
479.1005163986297
 20
-103.9974435939071
 30
0.0
 10
478.0543462572513
 20
-105.4593347216226
 30
0.0
 10
476.9091012096532
 20
-106.7738057761932
 30
0.0
 10
475.6992169235186
 20
-107.9048326022785
 30
0.0
 10
474.4619432662703
 20
-108.8230600416906
 30
0.0
 10
473.2366580247304
 20
-109.5066790201312
 30
0.0
 10
472.0617974357254
 20
-109.9453869160166
 30
0.0
 10
470.9768449592463
 20
-110.1333445392067
 30
0.0
 10
470.006816348735
 20
-110.1014150919998
 30
0.0
 10
469.4760067131048
 20
-109.8996437090546
 30
0.0
 10
469.2116415444904
 20
-109.7991532090837
 30
0.0
  0
SPLINE
  5
181
330
1F
100
AcDbEntity
  8
0
  6
Continuous
 62
     7
370
    25
100
AcDbSpline
210
0.0
220
0.0
230
1.0
 70
     8
 71
     3
 72
    13
 73
     9
 74
     0
 42
0.00000001
 43
0.00000001
 40
0.0
 40
0.0
 40
0.0
 40
0.0
 40
0.0213876440744066
 40
0.2552341454924792
 40
0.4603303484883928
 40
0.678418761583051
 40
0.8906960965911402
 40
1.0
 40
1.0
 40
1.0
 40
1.0
 10
375.765332253389
 20
-271.3456649075252
 30
0.0
 10
375.791396287294
 20
-271.3576413486333
 30
0.0
 10
376.102437157372
 20
-271.5005648376177
 30
0.0
 10
376.5393948193468
 20
-271.9766284135007
 30
0.0
 10
377.0904834609503
 20
-272.8147787700693
 30
0.0
 10
377.4627109907557
 20
-273.8804883623843
 30
0.0
 10
377.6382776789275
 20
-274.9517441010087
 30
0.0
 10
377.6538083214678
 20
-275.6631082398458
 30
0.0
 10
377.6590871115504
 20
-275.9048974608299
 30
0.0
  0
SPLINE
  5
182
330
1F
100
AcDbEntity
  8
0
  6
Continuous
 62
     7
370
    25
100
AcDbSpline
210
0.0
220
0.0
230
1.0
 70
     8
 71
     3
 72
    22
 73
    18
 74
     0
 42
0.00000001
 43
0.00000001
 40
0.0
 40
0.0
 40
0.0
 40
0.0
 40
0.0357957841880396
 40
0.104526159477075
 40
0.173495982100436
 40
0.2426747877289113
 40
0.3120162477226495
 40
0.3814428720991024
 40
0.4508656940685283
 40
0.520166373864859
 40
0.5892547153370105
 40
0.6580502909886775
 40
0.7265115741575934
 40
0.7947102482258757
 40
0.8628985641336196
 40
0.9317178103463424
 40
1.0
 40
1.0
 40
1.0
 40
1.0
 10
377.6590871115504
 20
-275.9048974608299
 30
0.0
 10
377.6537836443594
 20
-276.1544559719625
 30
0.0
 10
377.638297154261
 20
-276.8831840421864
 30
0.0
 10
377.4629622962741
 20
-278.185146743905
 30
0.0
 10
377.0676183120261
 20
-279.8006425845668
 30
0.0
 10
376.4805102759757
 20
-281.448209520268
 30
0.0
 10
375.7190207972624
 20
-283.078823907121
 30
0.0
 10
374.8022661736049
 20
-284.6473115939853
 30
0.0
 10
373.7560960322265
 20
-286.1092027217009
 30
0.0
 10
372.6108509846284
 20
-287.4236737762714
 30
0.0
 10
371.4009666984938
 20
-288.5547006023569
 30
0.0
 10
370.1636930412455
 20
-289.4729280417689
 30
0.0
 10
368.9384077997055
 20
-290.1565470202096
 30
0.0
 10
367.7635472107005
 20
-290.595254916095
 30
0.0
 10
366.6785947342213
 20
-290.7832125392851
 30
0.0
 10
365.7085661237101
 20
-290.7512830920782
 30
0.0
 10
365.1777564880797
 20
-290.5495117091328
 30
0.0
 10
364.9133913194652
 20
-290.4490212091619
 30
0.0
  0
SPLINE
  5
183
330
1F
100
AcDbEntity
  8
0
  6
Continuous
 62
     7
370
    25
100
AcDbSpline
210
0.0
220
0.0
230
1.0
 70
     8
 71
     3
 72
    13
 73
     9
 74
     0
 42
0.00000001
 43
0.00000001
 40
0.0
 40
0.0
 40
0.0
 40
0.0
 40
0.0213876440744285
 40
0.2552341454925044
 40
0.4603303484884322
 40
0.6784187615831327
 40
0.8906960965912043
 40
1.0
 40
1.0
 40
1.0
 40
1.0
 10
427.9144573659032
 20
-136.9367155518823
 30
0.0
 10
427.9405213998082
 20
-136.9486919929904
 30
0.0
 10
428.2515622698863
 20
-137.0916154819749
 30
0.0
 10
428.688519931861
 20
-137.5676790578579
 30
0.0
 10
429.2396085734645
 20
-138.4058294144267
 30
0.0
 10
429.61183610327
 20
-139.4715390067417
 30
0.0
 10
429.7874027914416
 20
-140.5427947453661
 30
0.0
 10
429.8029334339819
 20
-141.254158884203
 30
0.0
 10
429.8082122240645
 20
-141.4959481051871
 30
0.0
  0
SPLINE
  5
184
330
1F
100
AcDbEntity
  8
0
  6
Continuous
 62
     7
370
    25
100
AcDbSpline
210
0.0
220
0.0
230
1.0
 70
     8
 71
     3
 72
    22
 73
    18
 74
     0
 42
0.00000001
 43
0.00000001
 40
0.0
 40
0.0
 40
0.0
 40
0.0
 40
0.0357957841880392
 40
0.1045261594770873
 40
0.1734959821004441
 40
0.2426747877289151
 40
0.3120162477226596
 40
0.3814428720991097
 40
0.4508656940685335
 40
0.5201663738648657
 40
0.5892547153370157
 40
0.6580502909886818
 40
0.7265115741575974
 40
0.7947102482258817
 40
0.8628985641336281
 40
0.9317178103463475
 40
1.0
 40
1.0
 40
1.0
 40
1.0
 10
429.8082122240645
 20
-141.4959481051871
 30
0.0
 10
429.8029087568735
 20
-141.7455066163196
 30
0.0
 10
429.7874222667751
 20
-142.4742346865436
 30
0.0
 10
429.6120874087882
 20
-143.7761973882622
 30
0.0
 10
429.2167434245401
 20
-145.391693228924
 30
0.0
 10
428.6296353884898
 20
-147.0392601646252
 30
0.0
 10
427.8681459097763
 20
-148.6698745514783
 30
0.0
 10
426.9513912861188
 20
-150.2383622383425
 30
0.0
 10
425.9052211447405
 20
-151.7002533660581
 30
0.0
 10
424.7599760971424
 20
-153.0147244206285
 30
0.0
 10
423.5500918110078
 20
-154.145751246714
 30
0.0
 10
422.3128181537595
 20
-155.063978686126
 30
0.0
 10
421.0875329122196
 20
-155.7475976645667
 30
0.0
 10
419.9126723232145
 20
-156.186305560452
 30
0.0
 10
418.8277198467354
 20
-156.3742631836422
 30
0.0
 10
417.8576912362241
 20
-156.3423337364352
 30
0.0
 10
417.3268816005938
 20
-156.1405623534899
 30
0.0
 10
417.0625164319794
 20
-156.040071853519
 30
0.0
  0
SPLINE
  5
185
330
1F
100
AcDbEntity
  8
0
  6
Continuous
 62
     7
370
    25
100
AcDbSpline
210
0.0
220
0.0
230
1.0
 70
     8
 71
     3
 72
    13
 73
     9
 74
     0
 42
0.00000001
 43
0.00000001
 40
0.0
 40
0.0
 40
0.0
 40
0.0
 40
0.0213876440744951
 40
0.2552341454925957
 40
0.460330348488525
 40
0.6784187615832078
 40
0.8906960965912872
 40
1.0
 40
1.0
 40
1.0
 40
1.0
 10
389.7386482132781
 20
-203.0591564302166
 30
0.0
 10
389.7647122471831
 20
-203.0711328713248
 30
0.0
 10
390.0757531172614
 20
-203.2140563603093
 30
0.0
 10
390.5127107792361
 20
-203.6901199361925
 30
0.0
 10
391.0637994208396
 20
-204.5282702927614
 30
0.0
 10
391.4360269506449
 20
-205.5939798850765
 30
0.0
 10
391.6115936388165
 20
-206.6652356237007
 30
0.0
 10
391.6271242813568
 20
-207.3765997625374
 30
0.0
 10
391.6324030714394
 20
-207.6183889835213
 30
0.0
  0
SPLINE
  5
186
330
1F
100
AcDbEntity
  8
0
  6
Continuous
 62
     7
370
    25
100
AcDbSpline
210
0.0
220
0.0
230
1.0
 70
     8
 71
     3
 72
    22
 73
    18
 74
     0
 42
0.00000001
 43
0.00000001
 40
0.0
 40
0.0
 40
0.0
 40
0.0
 40
0.0357957841880399
 40
0.1045261594770879
 40
0.1734959821004451
 40
0.2426747877289161
 40
0.3120162477226598
 40
0.3814428720991095
 40
0.4508656940685301
 40
0.5201663738648663
 40
0.5892547153370139
 40
0.6580502909886837
 40
0.7265115741575991
 40
0.7947102482258823
 40
0.8628985641336249
 40
0.9317178103463452
 40
1.0
 40
1.0
 40
1.0
 40
1.0
 10
391.6324030714395
 20
-207.6183889835213
 30
0.0
 10
391.6270996042484
 20
-207.8679474946538
 30
0.0
 10
391.6116131141499
 20
-208.5966755648778
 30
0.0
 10
391.436278256163
 20
-209.8986382665965
 30
0.0
 10
391.040934271915
 20
-211.5141341072583
 30
0.0
 10
390.4538262358646
 20
-213.1617010429595
 30
0.0
 10
389.6923367571512
 20
-214.7923154298125
 30
0.0
 10
388.7755821334938
 20
-216.3608031166767
 30
0.0
 10
387.7294119921154
 20
-217.8226942443923
 30
0.0
 10
386.5841669445174
 20
-219.1371652989627
 30
0.0
 10
385.3742826583826
 20
-220.2681921250482
 30
0.0
 10
384.1370090011345
 20
-221.1864195644602
 30
0.0
 10
382.9117237595945
 20
-221.8700385429009
 30
0.0
 10
381.7368631705895
 20
-222.3087464387863
 30
0.0
 10
380.6519106941103
 20
-222.4967040619764
 30
0.0
 10
379.681882083599
 20
-222.4647746147694
 30
0.0
 10
379.1510724479688
 20
-222.2630032318242
 30
0.0
 10
378.8867072793543
 20
-222.1625127318532
 30
0.0
  0
LWPOLYLINE
  5
187
330
1F
100
AcDbEntity
  8
0
  6
Continuous
 62
     7
370
    25
100
AcDbPolyline
 90
      143
 70
   128
 43
0.0
 10
593.2659952017
 20
-151.1985583799
 10
593.149030747
 20
-145.1620822711
 10
592.7983663464
 20
-139.2724671326
 10
592.2146884418
 20
-133.5412421627
 10
591.3991396103
 20
-127.9796265033
 10
590.3533163268
 20
-122.5985072784
 10
589.0792658397
 20
-117.4084182813
 10
587.5794821626
 20
-112.4195193552
 10
585.8569011924
 20
-107.641576504
 10
583.9148949623
 20
-103.083942775
 10
581.7572650407
 20
-98.7555399505
 10
579.3882350895
 20
-94.6648410821
 10
576.812442596
 20
-90.819853905
 10
574.0349297951
 20
-87.2281051622
 10
571.0611337984
 20
-83.8966258705
 10
567.8968759513
 20
-80.8319375571
 10
564.5483504371
 20
-78.0400394932
 10
561.0221121518
 20
-75.5263969505
 10
557.3250638723
 20
-73.2959305022
 10
553.4644427444
 20
-71.3530063912
 10
549.4478061151
 20
-69.7014279826
 10
545.2830167393
 20
-68.3444283187
 10
540.9782273877
 20
-67.2846637901
 10
536.5418648877
 20
-66.5242089357
 10
531.9826136273
 20
-66.0645523815
 10
527.3093985547
 20
-65.9065939268
 10
522.5313677081
 20
-66.0506427828
 10
517.6578743071
 20
-66.4964169669
 10
512.698458444
 20
-67.2430438553
 10
507.6628284081
 20
-68.2890618909
 10
502.5608416819
 20
-69.6324234441
 10
497.4024856438
 20
-71.2704988217
 10
492.1978580181
 20
-73.2000814142
 10
486.9571471077
 20
-75.4173939731
 10
481.6906118503
 20
-77.9180960048
 10
476.4085617361
 20
-80.6972922678
 10
471.1213366262
 20
-83.7495423548
 10
465.839286512
 20
-87.0688713429
 10
460.5727512546
 20
-90.6487814898
 10
455.3320403442
 20
-94.4822649533
 10
450.1274127185
 20
-98.5618175095
 10
444.9690566804
 20
-102.8794532426
 10
439.8670699542
 20
-107.4267201779
 10
434.8314399183
 20
-112.1947168269
 10
429.8720240552
 20
-117.1741096123
 10
424.9985306542
 20
-122.3551511388
 10
420.2204998076
 20
-127.7276992743
 10
415.547284735
 20
-133.2812370036
 10
410.9880334746
 20
-139.0048930158
 10
406.5516709746
 20
-144.8874629854
 10
402.246881623
 20
-150.9174315055
 10
398.0820922472
 20
-157.0829946295
 10
394.0654556179
 20
-163.3720829781
 10
390.20483449
 20
-169.7723853656
 10
386.5077862105
 20
-176.2713728993
 10
382.9815479252
 20
-182.8563235061
 10
379.633022411
 20
-189.5143468358
 10
376.4687645639
 20
-196.2324094953
 10
373.4949685672
 20
-202.9973605612
 10
370.7174557663
 20
-209.7959573243
 10
368.1416632728
 20
-216.6148912121
 10
365.7726333216
 20
-223.4408138412
 10
363.6150034
 20
-230.2603631477
 10
361.6729971699
 20
-237.0601895435
 10
359.9504161997
 20
-243.8269820491
 10
358.4506325226
 20
-250.5474943504
 10
357.1765820355
 20
-257.208570729
 10
356.130758752
 20
-263.7971718151
 10
355.3152099205
 20
-270.3004001126
 10
354.7315320159
 20
-276.7055252467
 10
354.3808676153
 20
-283.0000088843
 10
354.2639031606
 20
-289.1715292779
 10
354.3808676153
 20
-295.2080053867
 10
354.7315320159
 20
-301.0976205252
 10
355.3152099205
 20
-306.8288454951
 10
356.130758752
 20
-312.3904611545
 10
357.1765820355
 20
-317.7715803795
 10
358.4506325226
 20
-322.9616693765
 10
359.9504161997
 20
-327.9505683026
 10
361.6729971699
 20
-332.7285111539
 10
363.6150034
 20
-337.2861448828
 10
365.7726333216
 20
-341.6145477074
 10
368.1416632728
 20
-345.7052465758
 10
370.7174557663
 20
-349.5502337528
 10
373.4949685672
 20
-353.1419824956
 10
376.4687645639
 20
-356.4734617873
 10
379.633022411
 20
-359.5381501007
 10
382.9815479252
 20
-362.3300481646
 10
386.5077862105
 20
-364.8436907073
 10
390.20483449
 20
-367.0741571557
 10
394.0654556179
 20
-369.0170812667
 10
398.0820922472
 20
-370.6686596753
 10
402.246881623
 20
-372.0256593392
 10
406.5516709746
 20
-373.0854238677
 10
410.9880334746
 20
-373.8458787221
 10
415.547284735
 20
-374.3055352763
 10
420.2204998076
 20
-374.463493731
 10
424.9985306542
 20
-374.3194448751
 10
429.8720240552
 20
-373.8736706909
 10
434.8314399183
 20
-373.1270438025
 10
439.8670699542
 20
-372.0810257669
 10
444.9690566804
 20
-370.7376642137
 10
450.1274127185
 20
-369.0995888361
 10
455.3320403442
 20
-367.1700062436
 10
460.5727512546
 20
-364.9526936848
 10
465.839286512
 20
-362.451991653
 10
471.1213366262
 20
-359.6727953901
 10
476.4085617361
 20
-356.6205453031
 10
481.6906118503
 20
-353.3012163149
 10
486.9571471077
 20
-349.721306168
 10
492.1978580181
 20
-345.8878227045
 10
497.4024856438
 20
-341.8082701484
 10
502.5608416819
 20
-337.4906344153
 10
507.6628284081
 20
-332.9433674799
 10
512.698458444
 20
-328.1753708309
 10
517.6578743071
 20
-323.1959780455
 10
522.5313677081
 20
-318.014936519
 10
527.3093985547
 20
-312.6423883835
 10
531.9826136273
 20
-307.0888506542
 10
536.5418648877
 20
-301.365194642
 10
540.9782273877
 20
-295.4826246724
 10
545.2830167393
 20
-289.4526561523
 10
549.4478061151
 20
-283.2870930283
 10
553.4644427444
 20
-276.9980046797
 10
557.3250638723
 20
-270.5977022923
 10
561.0221121518
 20
-264.0987147585
 10
564.5483504371
 20
-257.5137641518
 10
567.8968759513
 20
-250.855740822
 10
571.0611337984
 20
-244.1376781626
 10
574.0349297951
 20
-237.3727270967
 10
576.812442596
 20
-230.5741303336
 10
579.3882350895
 20
-223.7551964458
 10
581.7572650407
 20
-216.9292738166
 10
583.9148949623
 20
-210.1097245101
 10
585.8569011924
 20
-203.3098981143
 10
587.5794821626
 20
-196.5431056087
 10
589.0792658397
 20
-189.8225933074
 10
590.3533163268
 20
-183.1615169288
 10
591.3991396103
 20
-176.5729158428
 10
592.2146884418
 20
-170.0696875453
 10
592.7983663464
 20
-163.6645624111
 10
593.149030747
 20
-157.3700787736
 10
593.2659952017
 20
-151.1985583799
  0
ARC
  5
188
330
1F
100
AcDbEntity
  8
0
  6
Continuous
 62
     7
370
    25
100
AcDbCircle
 10
418.8091150237
 20
-317.0190923929
 30
0.0
 40
58.63287495480913
100
AcDbArc
 50
216.438395098
 51
263.7566188203
  0
ARC
  5
189
330
1F
100
AcDbEntity
  8
0
  6
Continuous
 62
     7
370
    25
100
AcDbCircle
 10
530.11615226
 20
-124.2063890969
 30
0.0
 40
58.67539610596607
100
AcDbArc
 50
35.9920319255
 51
83.9296821213
  0
ARC
  5
18A
330
1F
100
AcDbEntity
  8
0
  6
Continuous
 62
     7
370
    25
100
AcDbCircle
 10
546.9782571644
 20
-135.2169799582
 30
0.0
 40
59.81059142597588
100
AcDbArc
 50
35.9109497709
 51
59.7127974323
  0
ARC
  5
18B
330
1F
100
AcDbEntity
  8
0
  6
Continuous
 62
     7
370
    25
100
AcDbCircle
 10
436.8455453246
 20
-325.8915904962
 30
0.0
 40
59.99580439841855
100
AcDbArc
 50
240.340153203
 51
263.3447696417
  0
LWPOLYLINE
  5
18C
330
1F
100
AcDbEntity
  8
0
  6
Continuous
 62
     7
370
    25
100
AcDbPolyline
 90
       38
 70
   128
 43
0.0
 10
391.9252962903
 20
-207.2101849276
 10
391.8032432422
 20
-208.9365974569
 10
391.4405953422
 20
-210.7542636906
 10
390.8477853099
 20
-212.6108926807
 10
390.0418672106
 20
-214.4530725915
 10
389.0460258408
 20
-216.2278072609
 10
387.8889097436
 20
-217.8840408039
 10
386.6038070422
 20
-219.3741263968
 10
385.2276878016
 20
-220.6551969901
 10
383.800140467
 20
-221.6903985154
 10
382.3622329759
 20
-222.4499501095
 10
380.9553313089
 20
-222.9120008559
 10
379.6199094655
 20
-223.063258396
 10
378.3943851006
 20
-222.8993713257
 10
377.314014319
 20
-222.4250543777
 10
376.4098774209
 20
-221.6539527868
 10
375.7079847788
 20
-220.6082497421
 10
375.2285285662
 20
-219.3180282161
 10
374.9853018651
 20
-217.8204055331
 10
374.9853018651
 20
-216.1584655709
 10
375.2285285662
 20
-214.3800193164
 10
375.7079847788
 20
-212.5362294303
 10
376.4098774209
 20
-210.6801383906
 10
377.314014319
 20
-208.8651425572
 10
378.3943851006
 20
-207.1434560557
 10
379.6199094655
 20
-205.564608672
 10
380.9553313089
 20
-204.1740209707
 10
382.3622329759
 20
-203.0116976283
 10
383.800140467
 20
-202.1110765709
 10
385.2276878016
 20
-201.4980670268
 10
386.6038070422
 20
-201.1903041643
 10
387.8889097436
 20
-201.1966417606
 10
389.0460258408
 20
-201.5168974947
 10
390.0418672106
 20
-202.1418581922
 10
390.8477853099
 20
-203.0535448717
 10
391.4405953422
 20
-204.2257299673
 10
391.8032432422
 20
-205.624691848
 10
391.9252962903
 20
-207.2101849276
  0
LWPOLYLINE
  5
18D
330
1F
100
AcDbEntity
  8
0
  6
Continuous
 62
     7
370
    25
100
AcDbPolyline
 90
       38
 70
   128
 43
0.0
 10
391.9252962902
 20
-327.6499546808
 10
391.8032432422
 20
-329.37636721
 10
391.4405953422
 20
-331.1940334438
 10
390.8477853099
 20
-333.0506624339
 10
390.0418672106
 20
-334.8928423446
 10
389.0460258408
 20
-336.6675770141
 10
387.8889097436
 20
-338.323810557
 10
386.6038070422
 20
-339.8138961499
 10
385.2276878016
 20
-341.0949667433
 10
383.800140467
 20
-342.1301682685
 10
382.3622329759
 20
-342.8897198626
 10
380.9553313089
 20
-343.3517706091
 10
379.6199094655
 20
-343.5030281492
 10
378.3943851006
 20
-343.3391410789
 10
377.314014319
 20
-342.8648241308
 10
376.4098774209
 20
-342.09372254
 10
375.7079847788
 20
-341.0480194953
 10
375.2285285662
 20
-339.7577979693
 10
374.9853018651
 20
-338.2601752863
 10
374.9853018651
 20
-336.5982353241
 10
375.2285285662
 20
-334.8197890696
 10
375.7079847788
 20
-332.9759991835
 10
376.4098774209
 20
-331.1199081438
 10
377.314014319
 20
-329.3049123104
 10
378.3943851006
 20
-327.5832258089
 10
379.6199094655
 20
-326.0043784251
 10
380.9553313089
 20
-324.6137907239
 10
382.3622329759
 20
-323.4514673814
 10
383.800140467
 20
-322.5508463241
 10
385.2276878016
 20
-321.9378367799
 10
386.6038070422
 20
-321.6300739174
 10
387.8889097436
 20
-321.6364115138
 10
389.0460258408
 20
-321.9566672479
 10
390.0418672106
 20
-322.5816279454
 10
390.8477853099
 20
-323.4933146249
 10
391.4405953422
 20
-324.6654997205
 10
391.8032432422
 20
-326.0644616012
 10
391.9252962902
 20
-327.6499546808
  0
LWPOLYLINE
  5
18E
330
1F
100
AcDbEntity
  8
0
  6
Continuous
 62
     7
370
    25
100
AcDbPolyline
 90
       38
 70
   128
 43
0.0
 10
482.2502305554
 20
-335.7263649112
 10
482.1281775074
 20
-337.4527774404
 10
481.7655296073
 20
-339.2704436742
 10
481.172719575
 20
-341.1270726643
 10
480.3668014758
 20
-342.969252575
 10
479.370960106
 20
-344.7439872445
 10
478.2138440087
 20
-346.4002207874
 10
476.9287413073
 20
-347.8903063803
 10
475.5526220668
 20
-349.1713769737
 10
474.1250747321
 20
-350.2065784989
 10
472.687167241
 20
-350.966130093
 10
471.2802655741
 20
-351.4281808395
 10
469.9448437306
 20
-351.5794383795
 10
468.7193193657
 20
-351.4155513093
 10
467.6389485841
 20
-350.9412343612
 10
466.734811686
 20
-350.1701327704
 10
466.032919044
 20
-349.1244297256
 10
465.5534628313
 20
-347.8342081997
 10
465.3102361303
 20
-346.3365855167
 10
465.3102361303
 20
-344.6746455545
 10
465.5534628313
 20
-342.8961993
 10
466.032919044
 20
-341.0524094139
 10
466.734811686
 20
-339.1963183742
 10
467.6389485841
 20
-337.3813225408
 10
468.7193193657
 20
-335.6596360392
 10
469.9448437306
 20
-334.0807886555
 10
471.2802655741
 20
-332.6902009543
 10
472.687167241
 20
-331.5278776118
 10
474.1250747321
 20
-330.6272565545
 10
475.5526220668
 20
-330.0142470103
 10
476.9287413073
 20
-329.7064841478
 10
478.2138440087
 20
-329.7128217442
 10
479.370960106
 20
-330.0330774783
 10
480.3668014758
 20
-330.6580381758
 10
481.172719575
 20
-331.5697248553
 10
481.7655296073
 20
-332.7419099509
 10
482.1281775074
 20
-334.1408718316
 10
482.2502305554
 20
-335.7263649112
  0
LWPOLYLINE
  5
18F
330
1F
100
AcDbEntity
  8
0
  6
Continuous
 62
     7
370
    25
100
AcDbPolyline
 90
       38
 70
   128
 43
0.0
 10
586.5484807804
 20
-155.0764969111
 10
586.4264277324
 20
-156.8029094403
 10
586.0637798323
 20
-158.6205756741
 10
585.4709698
 20
-160.4772046642
 10
584.6650517008
 20
-162.3193845749
 10
583.669210331
 20
-164.0941192444
 10
582.5120942337
 20
-165.7503527873
 10
581.2269915323
 20
-167.2404383802
 10
579.8508722918
 20
-168.5215089736
 10
578.4233249571
 20
-169.5567104988
 10
576.9854174661
 20
-170.3162620929
 10
575.5785157991
 20
-170.7783128394
 10
574.2430939557
 20
-170.9295703795
 10
573.0175695908
 20
-170.7656833092
 10
571.9371988091
 20
-170.2913663611
 10
571.0330619111
 20
-169.5202647703
 10
570.331169269
 20
-168.4745617256
 10
569.8517130563
 20
-167.1843401996
 10
569.6084863553
 20
-165.6867175166
 10
569.6084863553
 20
-164.0247775544
 10
569.8517130563
 20
-162.2463312999
 10
570.331169269
 20
-160.4025414138
 10
571.0330619111
 20
-158.5464503741
 10
571.9371988091
 20
-156.7314545407
 10
573.0175695908
 20
-155.0097680392
 10
574.2430939557
 20
-153.4309206555
 10
575.5785157991
 20
-152.0403329542
 10
576.9854174661
 20
-150.8780096117
 10
578.4233249571
 20
-149.9773885544
 10
579.8508722918
 20
-149.3643790102
 10
581.2269915323
 20
-149.0566161477
 10
582.5120942337
 20
-149.0629537441
 10
583.669210331
 20
-149.3832094782
 10
584.6650517008
 20
-150.0081701757
 10
585.4709698
 20
-150.9198568552
 10
586.0637798323
 20
-152.0920419508
 10
586.4264277324
 20
-153.4910038315
 10
586.5484807804
 20
-155.0764969111
  0
LWPOLYLINE
  5
190
330
1F
100
AcDbEntity
  8
0
  6
Continuous
 62
     7
370
    25
100
AcDbPolyline
 90
       38
 70
   128
 43
0.0
 10
534.3993556679
 20
-80.8776458024
 10
534.2773026199
 20
-82.6040583316
 10
533.9146547198
 20
-84.4217245654
 10
533.3218446875
 20
-86.2783535555
 10
532.5159265883
 20
-88.1205334662
 10
531.5200852185
 20
-89.8952681357
 10
530.3629691212
 20
-91.5515016786
 10
529.0778664198
 20
-93.0415872715
 10
527.7017471793
 20
-94.3226578649
 10
526.2741998446
 20
-95.3578593901
 10
524.8362923536
 20
-96.1174109842
 10
523.4293906866
 20
-96.5794617307
 10
522.0939688431
 20
-96.7307192707
 10
520.8684444783
 20
-96.5668322005
 10
519.7880736966
 20
-96.0925152524
 10
518.8839367986
 20
-95.3214136616
 10
518.1820441565
 20
-94.2757106168
 10
517.7025879438
 20
-92.9854890909
 10
517.4593612428
 20
-91.4878664079
 10
517.4593612428
 20
-89.8259264457
 10
517.7025879438
 20
-88.0474801912
 10
518.1820441565
 20
-86.2036903051
 10
518.8839367986
 20
-84.3475992654
 10
519.7880736966
 20
-82.532603432
 10
520.8684444783
 20
-80.8109169304
 10
522.0939688431
 20
-79.2320695467
 10
523.4293906866
 20
-77.8414818455
 10
524.8362923536
 20
-76.679158503
 10
526.2741998446
 20
-75.7785374457
 10
527.7017471793
 20
-75.1655279015
 10
529.0778664198
 20
-74.857765039
 10
530.3629691212
 20
-74.8641026354
 10
531.5200852185
 20
-75.1843583695
 10
532.5159265883
 20
-75.809319067
 10
533.3218446875
 20
-76.7210057465
 10
533.9146547198
 20
-77.8931908421
 10
534.2773026199
 20
-79.2921527228
 10
534.3993556679
 20
-80.8776458024
  0
LWPOLYLINE
  5
191
330
1F
100
AcDbEntity
  8
0
  6
Continuous
 62
     7
370
    25
100
AcDbPolyline
 90
       38
 70
   128
 43
0.0
 10
482.2502305554
 20
-94.8468254048
 10
482.1281775074
 20
-96.5732379341
 10
481.7655296073
 20
-98.3909041678
 10
481.172719575
 20
-100.2475331579
 10
480.3668014758
 20
-102.0897130687
 10
479.370960106
 20
-103.8644477382
 10
478.2138440087
 20
-105.5206812811
 10
476.9287413073
 20
-107.010766874
 10
475.5526220668
 20
-108.2918374674
 10
474.1250747321
 20
-109.3270389926
 10
472.6871672411
 20
-110.0865905867
 10
471.2802655741
 20
-110.5486413331
 10
469.9448437306
 20
-110.6998988732
 10
468.7193193658
 20
-110.5360118029
 10
467.6389485841
 20
-110.0616948549
 10
466.734811686
 20
-109.2905932641
 10
466.032919044
 20
-108.2448902193
 10
465.5534628313
 20
-106.9546686934
 10
465.3102361303
 20
-105.4570460103
 10
465.3102361303
 20
-103.7951060482
 10
465.5534628313
 20
-102.0166597937
 10
466.032919044
 20
-100.1728699075
 10
466.734811686
 20
-98.3167788679
 10
467.6389485841
 20
-96.5017830345
 10
468.7193193658
 20
-94.7800965329
 10
469.9448437306
 20
-93.2012491492
 10
471.2802655741
 20
-91.810661448
 10
472.6871672411
 20
-90.6483381055
 10
474.1250747321
 20
-89.7477170482
 10
475.5526220668
 20
-89.134707504
 10
476.9287413073
 20
-88.8269446415
 10
478.2138440087
 20
-88.8332822378
 10
479.370960106
 20
-89.153537972
 10
480.3668014758
 20
-89.7784986695
 10
481.172719575
 20
-90.690185349
 10
481.7655296073
 20
-91.8623704446
 10
482.1281775074
 20
-93.2613323253
 10
482.2502305554
 20
-94.8468254048
  0
LWPOLYLINE
  5
192
330
1F
100
AcDbEntity
  8
0
  6
Continuous
 62
     7
370
    25
100
AcDbPolyline
 90
      120
 70
   128
 43
0.0
 10
557.5571027518
 20
-171.8128632034
 10
557.4403308714
 20
-176.9868213131
 10
557.0903406945
 20
-182.2811806168
 10
556.5081077065
 20
-187.6811847856
 10
555.6952546951
 20
-193.1717830394
 10
554.6540472275
 20
-198.737672096
 10
553.3873873356
 20
-204.3633388243
 10
551.8988054277
 20
-210.0331034823
 10
550.1924504486
 20
-215.7311634188
 10
548.2730783157
 20
-221.4416371188
 10
546.1460386634
 20
-227.148608468
 10
543.8172599326
 20
-232.8361711135
 10
541.2932328473
 20
-238.4884727983
 10
538.5809923239
 20
-244.0897595436
 10
535.688097863
 20
-249.6244195588
 10
532.6226124803
 20
-255.0770267536
 10
529.3930802335
 20
-260.432383734
 10
526.0085024082
 20
-265.6755641594
 10
522.4783124298
 20
-270.7919543455
 10
518.8123495709
 20
-275.7672939954
 10
515.0208315276
 20
-280.587715945
 10
511.1143259407
 20
-285.2397848138
 10
507.1037209418
 20
-289.7105344514
 10
503.0001948066
 20
-293.9875040768
 10
498.8151847982
 20
-298.0587730084
 10
494.5603552902
 20
-301.9129938897
 10
490.2475652556
 20
-305.5394243157
 10
485.8888352138
 20
-308.9279567743
 10
481.496313727
 20
-312.069146818
 10
477.0822435406
 20
-314.9542393865
 10
472.6589274598
 20
-317.5751932095
 10
468.23869406
 20
-319.9247032186
 10
463.8338633243
 20
-321.996220908
 10
459.4567123061
 20
-323.7839725863
 10
455.1194409104
 20
-325.282975469
 10
450.8341378904
 20
-326.4890515661
 10
446.6127471543
 20
-327.3988393273
 10
442.4670344752
 20
-328.009803011
 10
438.4085546979
 20
-328.3202397517
 10
434.4486195334
 20
-328.3292843065
 10
430.5982660313
 20
-328.0369114667
 10
426.8682258174
 20
-327.4439361278
 10
423.2688951827
 20
-326.5520110185
 10
419.8103061073
 20
-325.363622094
 10
416.5020982994
 20
-323.8820816073
 10
413.3534923273
 20
-322.1115188775
 10
410.3732639207
 20
-320.0568687806
 10
407.5697195107
 20
-317.7238579948
 10
404.9506730783
 20
-315.1189890397
 10
402.5234243757
 20
-312.2495221522
 10
400.2947385805
 20
-309.1234550513
 10
398.2708274395
 20
-305.7495006465
 10
396.4573319563
 20
-302.137062754
 10
394.8593066679
 20
-298.2962098861
 10
393.4812055575
 20
-294.2376471886
 10
392.32686964
 20
-289.9726866037
 10
391.3995162567
 20
-285.5132153415
 10
390.7017301077
 20
-280.8716627483
 10
390.2354560483
 20
-276.0609656635
 10
390.0019936678
 20
-271.0945323628
 10
390.0019936678
 20
-265.9862051867
 10
390.2354560483
 20
-260.7502219591
 10
390.7017301077
 20
-255.4011763043
 10
391.3995162567
 20
-249.9539769721
 10
392.32686964
 20
-244.423806284
 10
393.4812055575
 20
-238.8260778175
 10
394.8593066679
 20
-233.1763934459
 10
396.4573319563
 20
-227.4904998529
 10
398.2708274395
 20
-221.7842446436
 10
400.2947385805
 20
-216.0735321748
 10
402.5234243757
 20
-210.3742792264
 10
404.9506730783
 20
-204.7023706386
 10
407.5697195107
 20
-199.0736150379
 10
410.3732639207
 20
-193.5037007757
 10
413.3534923273
 20
-188.0081522021
 10
416.5020982994
 20
-182.6022863966
 10
419.8103061073
 20
-177.3011704768
 10
423.2688951827
 20
-172.1195796036
 10
426.8682258174
 20
-167.0719558
 10
430.5982660313
 20
-162.1723676989
 10
434.4486195334
 20
-157.4344713313
 10
438.4085546979
 20
-152.8714720639
 10
442.4670344752
 20
-148.4960877941
 10
446.6127471543
 20
-144.3205135028
 10
450.8341378904
 20
-140.3563872643
 10
455.1194409104
 20
-136.6147578095
 10
459.4567123061
 20
-133.1060537307
 10
463.8338633243
 20
-129.8400544155
 10
468.23869406
 20
-126.8258627899
 10
472.6589274598
 20
-124.0718799464
 10
477.0822435406
 20
-121.5857817292
 10
481.496313727
 20
-119.3744973399
 10
485.8888352138
 20
-117.4441900248
 10
490.2475652556
 20
-115.8002398965
 10
494.5603552902
 20
-114.4472289389
 10
498.8151847982
 20
-113.3889282363
 10
503.0001948066
 20
-112.6282874624
 10
507.1037209419
 20
-112.1674266595
 10
511.1143259407
 20
-112.0076303294
 10
515.0208315276
 20
-112.1493438531
 10
518.8123495709
 20
-112.5921722496
 10
522.4783124298
 20
-113.3348812767
 10
526.0085024082
 20
-114.3754008712
 10
529.3930802335
 20
-115.7108309182
 10
532.6226124803
 20
-117.3374493349
 10
535.688097863
 20
-119.2507224438
 10
538.5809923239
 20
-121.4453176097
 10
541.2932328473
 20
-123.9151181022
 10
543.8172599326
 20
-126.6532401443
 10
546.1460386634
 20
-129.652052099
 10
548.2730783157
 20
-132.9031957393
 10
550.1924504486
 20
-136.3976095448
 10
551.8988054277
 20
-140.1255539576
 10
553.3873873356
 20
-144.0766385278
 10
554.6540472275
 20
-148.2398508742
 10
555.6952546951
 20
-152.6035873772
 10
556.5081077065
 20
-157.1556855206
 10
557.0903406945
 20
-161.8834577903
 10
557.4403308714
 20
-166.773727037
 10
557.5571027518
 20
-171.8128632034
  0
LWPOLYLINE
  5
193
330
1F
100
AcDbEntity
  8
0
  6
Continuous
 62
     7
370
    25
100
AcDbPolyline
 90
       38
 70
   128
 43
0.0
 10
572.5751648205
 20
-223.3630053884
 10
572.4531117725
 20
-225.0894179176
 10
572.0904638724
 20
-226.9070841514
 10
571.4976538401
 20
-228.7637131415
 10
570.6917357409
 20
-230.6058930523
 10
569.6958943711
 20
-232.3806277217
 10
568.5387782738
 20
-234.0368612646
 10
567.2536755725
 20
-235.5269468575
 10
565.8775563319
 20
-236.8080174509
 10
564.4500089973
 20
-237.8432189762
 10
563.0121015062
 20
-238.6027705702
 10
561.6051998392
 20
-239.0648213167
 10
560.2697779958
 20
-239.2160788568
 10
559.0442536309
 20
-239.0521917865
 10
557.9638828492
 20
-238.5778748384
 10
557.0597459512
 20
-237.8067732476
 10
556.3578533091
 20
-236.7610702029
 10
555.8783970964
 20
-235.4708486769
 10
555.6351703954
 20
-233.9732259939
 10
555.6351703954
 20
-232.3112860317
 10
555.8783970964
 20
-230.5328397772
 10
556.3578533091
 20
-228.6890498911
 10
557.0597459512
 20
-226.8329588514
 10
557.9638828492
 20
-225.017963018
 10
559.0442536309
 20
-223.2962765165
 10
560.2697779958
 20
-221.7174291328
 10
561.6051998392
 20
-220.3268414315
 10
563.0121015062
 20
-219.1645180891
 10
564.4500089973
 20
-218.2638970317
 10
565.8775563319
 20
-217.6508874875
 10
567.2536755725
 20
-217.343124625
 10
568.5387782738
 20
-217.3494622214
 10
569.6958943711
 20
-217.6697179555
 10
570.6917357409
 20
-218.294678653
 10
571.4976538401
 20
-219.2063653325
 10
572.0904638724
 20
-220.3785504281
 10
572.4531117725
 20
-221.7775123088
 10
572.5751648205
 20
-223.3630053884
  0
LWPOLYLINE
  5
194
330
1F
100
AcDbEntity
  8
0
  6
Continuous
 62
     7
370
    25
100
AcDbPolyline
 90
       38
 70
   128
 43
0.0
 10
572.5751648205
 20
-102.9232356352
 10
572.4531117725
 20
-104.6496481645
 10
572.0904638724
 20
-106.4673143982
 10
571.4976538401
 20
-108.3239433883
 10
570.6917357409
 20
-110.1661232991
 10
569.6958943711
 20
-111.9408579685
 10
568.5387782738
 20
-113.5970915115
 10
567.2536755725
 20
-115.0871771044
 10
565.8775563319
 20
-116.3682476977
 10
564.4500089973
 20
-117.403449223
 10
563.0121015062
 20
-118.1630008171
 10
561.6051998392
 20
-118.6250515635
 10
560.2697779958
 20
-118.7763091036
 10
559.0442536309
 20
-118.6124220333
 10
557.9638828492
 20
-118.1381050853
 10
557.0597459512
 20
-117.3670034945
 10
556.3578533091
 20
-116.3213004497
 10
555.8783970964
 20
-115.0310789237
 10
555.6351703954
 20
-113.5334562407
 10
555.6351703954
 20
-111.8715162786
 10
555.8783970964
 20
-110.093070024
 10
556.3578533091
 20
-108.2492801379
 10
557.0597459512
 20
-106.3931890983
 10
557.9638828492
 20
-104.5781932649
 10
559.0442536309
 20
-102.8565067633
 10
560.2697779958
 20
-101.2776593796
 10
561.6051998392
 20
-99.8870716784
 10
563.0121015062
 20
-98.7247483359
 10
564.4500089973
 20
-97.8241272785
 10
565.8775563319
 20
-97.2111177344
 10
567.2536755725
 20
-96.9033548719
 10
568.5387782738
 20
-96.9096924682
 10
569.6958943711
 20
-97.2299482024
 10
570.6917357409
 20
-97.8549088999
 10
571.4976538401
 20
-98.7665955794
 10
572.0904638724
 20
-99.9387806749
 10
572.4531117725
 20
-101.3377425556
 10
572.5751648205
 20
-102.9232356352
  0
LWPOLYLINE
  5
195
330
1F
100
AcDbEntity
  8
0
  6
Continuous
 62
     7
370
    25
100
AcDbPolyline
 90
       38
 70
   128
 43
0.0
 10
534.3993556679
 20
-289.4854462667
 10
534.2773026199
 20
-291.211858796
 10
533.9146547198
 20
-293.0295250297
 10
533.3218446875
 20
-294.8861540198
 10
532.5159265883
 20
-296.7283339306
 10
531.5200852185
 20
-298.5030686
 10
530.3629691212
 20
-300.159302143
 10
529.0778664198
 20
-301.6493877359
 10
527.7017471793
 20
-302.9304583292
 10
526.2741998446
 20
-303.9656598545
 10
524.8362923536
 20
-304.7252114486
 10
523.4293906866
 20
-305.187262195
 10
522.0939688431
 20
-305.3385197351
 10
520.8684444783
 20
-305.1746326648
 10
519.7880736966
 20
-304.7003157168
 10
518.8839367985
 20
-303.9292141259
 10
518.1820441565
 20
-302.8835110812
 10
517.7025879438
 20
-301.5932895552
 10
517.4593612428
 20
-300.0956668722
 10
517.4593612428
 20
-298.43372691
 10
517.7025879438
 20
-296.6552806555
 10
518.1820441565
 20
-294.8114907694
 10
518.8839367985
 20
-292.9553997297
 10
519.7880736966
 20
-291.1404038964
 10
520.8684444783
 20
-289.4187173948
 10
522.0939688431
 20
-287.8398700111
 10
523.4293906866
 20
-286.4492823098
 10
524.8362923536
 20
-285.2869589674
 10
526.2741998446
 20
-284.38633791
 10
527.7017471793
 20
-283.7733283659
 10
529.0778664198
 20
-283.4655655034
 10
530.3629691212
 20
-283.4719030997
 10
531.5200852185
 20
-283.7921588338
 10
532.5159265883
 20
-284.4171195314
 10
533.3218446875
 20
-285.3288062108
 10
533.9146547198
 20
-286.5009913064
 10
534.2773026199
 20
-287.8999531871
 10
534.3993556679
 20
-289.4854462667
  0
LWPOLYLINE
  5
196
330
1F
100
AcDbEntity
  8
0
  6
Continuous
 62
     7
370
    25
100
AcDbPolyline
 90
       38
 70
   128
 43
0.0
 10
430.1011054429
 20
-349.6955445136
 10
429.9790523949
 20
-351.4219570429
 10
429.6164044948
 20
-353.2396232766
 10
429.0235944625
 20
-355.0962522667
 10
428.2176763632
 20
-356.9384321775
 10
427.2218349934
 20
-358.713166847
 10
426.0647188962
 20
-360.3694003899
 10
424.7796161948
 20
-361.8594859828
 10
423.4034969543
 20
-363.1405565762
 10
421.9759496196
 20
-364.1757581014
 10
420.5380421285
 20
-364.9353096955
 10
419.1311404616
 20
-365.3973604419
 10
417.7957186181
 20
-365.548617982
 10
416.5701942532
 20
-365.3847309117
 10
415.4898234716
 20
-364.9104139637
 10
414.5856865735
 20
-364.1393123729
 10
413.8837939315
 20
-363.0936093281
 10
413.4043377188
 20
-361.8033878022
 10
413.1611110178
 20
-360.3057651191
 10
413.1611110178
 20
-358.643825157
 10
413.4043377188
 20
-356.8653789025
 10
413.8837939315
 20
-355.0215890163
 10
414.5856865735
 20
-353.1654979767
 10
415.4898234716
 20
-351.3505021433
 10
416.5701942532
 20
-349.6288156417
 10
417.7957186181
 20
-348.049968258
 10
419.1311404616
 20
-346.6593805568
 10
420.5380421285
 20
-345.4970572143
 10
421.9759496196
 20
-344.596436157
 10
423.4034969543
 20
-343.9834266128
 10
424.7796161948
 20
-343.6756637503
 10
426.0647188962
 20
-343.6820013466
 10
427.2218349934
 20
-344.0022570808
 10
428.2176763632
 20
-344.6272177783
 10
429.0235944625
 20
-345.5389044578
 10
429.6164044948
 20
-346.7110895534
 10
429.9790523949
 20
-348.1100514341
 10
430.1011054429
 20
-349.6955445136
  0
LWPOLYLINE
  5
197
330
1F
100
AcDbEntity
  8
0
  6
Continuous
 62
     7
370
    25
100
AcDbPolyline
 90
       38
 70
   128
 43
0.0
 10
377.9519803304
 20
-275.4966934049
 10
377.8299272824
 20
-277.2231059342
 10
377.4672793823
 20
-279.0407721679
 10
376.87446935
 20
-280.897401158
 10
376.0685512507
 20
-282.7395810688
 10
375.0727098809
 20
-284.5143157382
 10
373.9155937837
 20
-286.1705492812
 10
372.6304910823
 20
-287.6606348741
 10
371.2543718418
 20
-288.9417054674
 10
369.8268245071
 20
-289.9769069927
 10
368.388917016
 20
-290.7364585868
 10
366.9820153491
 20
-291.1985093332
 10
365.6465935056
 20
-291.3497668733
 10
364.4210691407
 20
-291.185879803
 10
363.3406983591
 20
-290.711562855
 10
362.436561461
 20
-289.9404612642
 10
361.734668819
 20
-288.8947582194
 10
361.2552126063
 20
-287.6045366934
 10
361.0119859053
 20
-286.1069140104
 10
361.0119859053
 20
-284.4449740482
 10
361.2552126063
 20
-282.6665277937
 10
361.734668819
 20
-280.8227379076
 10
362.436561461
 20
-278.966646868
 10
363.3406983591
 20
-277.1516510346
 10
364.4210691407
 20
-275.429964533
 10
365.6465935056
 20
-273.8511171493
 10
366.9820153491
 20
-272.460529448
 10
368.388917016
 20
-271.2982061056
 10
369.8268245071
 20
-270.3975850482
 10
371.2543718418
 20
-269.7845755041
 10
372.6304910823
 20
-269.4768126416
 10
373.9155937837
 20
-269.4831502379
 10
375.0727098809
 20
-269.803405972
 10
376.0685512507
 20
-270.4283666696
 10
376.87446935
 20
-271.340053349
 10
377.4672793823
 20
-272.5122384446
 10
377.8299272824
 20
-273.9112003253
 10
377.9519803304
 20
-275.4966934049
  0
LWPOLYLINE
  5
198
330
1F
100
AcDbEntity
  8
0
  6
Continuous
 62
     7
370
    25
100
AcDbPolyline
 90
       38
 70
   128
 43
0.0
 10
430.1011054429
 20
-141.0877440493
 10
429.9790523949
 20
-142.8141565785
 10
429.6164044948
 20
-144.6318228123
 10
429.0235944625
 20
-146.4884518024
 10
428.2176763632
 20
-148.3306317131
 10
427.2218349935
 20
-150.1053663826
 10
426.0647188962
 20
-151.7615999255
 10
424.7796161948
 20
-153.2516855184
 10
423.4034969543
 20
-154.5327561118
 10
421.9759496196
 20
-155.5679576371
 10
420.5380421285
 20
-156.3275092311
 10
419.1311404616
 20
-156.7895599776
 10
417.7957186181
 20
-156.9408175177
 10
416.5701942532
 20
-156.7769304474
 10
415.4898234716
 20
-156.3026134993
 10
414.5856865735
 20
-155.5315119085
 10
413.8837939315
 20
-154.4858088638
 10
413.4043377188
 20
-153.1955873378
 10
413.1611110178
 20
-151.6979646548
 10
413.1611110178
 20
-150.0360246926
 10
413.4043377188
 20
-148.2575784381
 10
413.8837939315
 20
-146.413788552
 10
414.5856865735
 20
-144.5576975123
 10
415.4898234716
 20
-142.7427016789
 10
416.5701942532
 20
-141.0210151774
 10
417.7957186181
 20
-139.4421677937
 10
419.1311404616
 20
-138.0515800924
 10
420.5380421285
 20
-136.8892567499
 10
421.9759496196
 20
-135.9886356926
 10
423.4034969543
 20
-135.3756261484
 10
424.7796161948
 20
-135.0678632859
 10
426.0647188962
 20
-135.0742008823
 10
427.2218349935
 20
-135.3944566164
 10
428.2176763632
 20
-136.0194173139
 10
429.0235944625
 20
-136.9311039934
 10
429.6164044948
 20
-138.103289089
 10
429.9790523949
 20
-139.5022509697
 10
430.1011054429
 20
-141.0877440493
  0
ARC
  5
199
330
1F
100
AcDbEntity
  8
0
  6
Continuous
 62
     7
370
    25
100
AcDbCircle
 10
513.1629276703
 20
-153.5651504498
 30
0.0
 40
40.09758668492253
100
AcDbArc
 50
40.6256333836
 51
79.9514252782
  0
ARC
  5
19A
330
1F
100
AcDbEntity
  8
0
  6
Continuous
 62
     7
370
    25
100
AcDbCircle
 10
435.9307231303
 20
-287.3360511851
 30
0.0
 40
40.4105681768856
100
AcDbArc
 50
216.911756487
 51
261.6296299876
  0
LWPOLYLINE
  5
19B
330
1F
100
AcDbEntity
  8
0
  6
Continuous
 62
     7
370
    25
100
AcDbPolyline
 90
        3
 70
   128
 43
0.0
 10
425.2342007826
 20
-326.2984768128
 10
422.9137995348
 20
-323.8049967388
 10
422.1749468154
 20
-322.9223580083
  0
ARC
  5
19C
330
1F
100
AcDbEntity
  8
0
  6
Continuous
 62
     7
370
    25
100
AcDbCircle
 10
529.9674888247
 20
-167.2075652954
 30
0.0
 40
43.63536375998661
100
AcDbArc
 50
74.8280662656
 51
82.116673507
  0
LINE
  5
19D
330
1F
100
AcDbEntity
  8
0
  6
Continuous
 62
     7
370
    25
100
AcDbLine
 10
570.4175425226
 20
-219.2161151197
 30
0.0
 11
570.296543257
 21
-219.143120629
 31
0.0
  0
LINE
  5
19E
330
1F
100
AcDbEntity
  8
0
  6
Continuous
 62
     7
370
    25
100
AcDbLine
 10
559.297437198
 20
-238.1961956014
 30
0.0
 11
559.5863560782
 21
-238.3463167311
 31
0.0
  0
LINE
  5
19F
330
1F
100
AcDbEntity
  8
0
  6
Continuous
 62
     7
370
    25
100
AcDbLine
 10
532.24173337
 20
-285.338555998
 30
0.0
 11
532.1207341043
 21
-285.2655615074
 31
0.0
  0
LINE
  5
1A0
330
1F
100
AcDbEntity
  8
0
  6
Continuous
 62
     7
370
    25
100
AcDbLine
 10
521.1216280453
 20
-304.3186364798
 30
0.0
 11
521.4105469256
 21
-304.4687576094
 31
0.0
  0
LINE
  5
1A1
330
1F
100
AcDbEntity
  8
0
  6
Continuous
 62
     7
370
    25
100
AcDbLine
 10
584.3908584825
 20
-150.9296066424
 30
0.0
 11
584.2698592169
 21
-150.8566121517
 31
0.0
  0
LINE
  5
1A2
330
1F
100
AcDbEntity
  8
0
  6
Continuous
 62
     7
370
    25
100
AcDbLine
 10
573.2707531579
 20
-169.9096871241
 30
0.0
 11
573.5596720381
 21
-170.0598082538
 31
0.0
  0
LINE
  5
1A3
330
1F
100
AcDbEntity
  8
0
  6
Continuous
 62
     7
370
    25
100
AcDbLine
 10
480.0926082575
 20
-331.5794746425
 30
0.0
 11
479.9716089918
 21
-331.5064801518
 31
0.0
  0
LINE
  5
1A4
330
1F
100
AcDbEntity
  8
0
  6
Continuous
 62
     7
370
    25
100
AcDbLine
 10
468.9725029328
 20
-350.5595551242
 30
0.0
 11
469.2614218131
 21
-350.7096762539
 31
0.0
  0
LINE
  5
1A5
330
1F
100
AcDbEntity
  8
0
  6
Continuous
 62
     7
370
    25
100
AcDbLine
 10
570.4175425226
 20
-98.7763453665
 30
0.0
 11
570.296543257
 21
-98.7033508759
 31
0.0
  0
LINE
  5
1A6
330
1F
100
AcDbEntity
  8
0
  6
Continuous
 62
     7
370
    25
100
AcDbLine
 10
559.297437198
 20
-117.7564258483
 30
0.0
 11
559.5863560782
 21
-117.9065469779
 31
0.0
  0
LINE
  5
1A7
330
1F
100
AcDbEntity
  8
0
  6
Continuous
 62
     7
370
    25
100
AcDbLine
 10
427.943483145
 20
-345.5486542449
 30
0.0
 11
427.8224838793
 21
-345.4756597543
 31
0.0
  0
LINE
  5
1A8
330
1F
100
AcDbEntity
  8
0
  6
Continuous
 62
     7
370
    25
100
AcDbLine
 10
416.8233778203
 20
-364.5287347267
 30
0.0
 11
417.1122967006
 21
-364.6788558564
 31
0.0
  0
LINE
  5
1A9
330
1F
100
AcDbEntity
  8
0
  6
Continuous
 62
     7
370
    25
100
AcDbLine
 10
532.24173337
 20
-76.7307555337
 30
0.0
 11
532.1207341043
 21
-76.657761043
 31
0.0
  0
LINE
  5
1AA
330
1F
100
AcDbEntity
  8
0
  6
Continuous
 62
     7
370
    25
100
AcDbLine
 10
521.1216280453
 20
-95.7108360154
 30
0.0
 11
521.4105469256
 21
-95.8609571451
 31
0.0
  0
LINE
  5
1AB
330
1F
100
AcDbEntity
  8
0
  6
Continuous
 62
     7
370
    25
100
AcDbLine
 10
389.7676739923
 20
-323.5030644121
 30
0.0
 11
389.6466747267
 21
-323.4300699214
 31
0.0
  0
LINE
  5
1AC
330
1F
100
AcDbEntity
  8
0
  6
Continuous
 62
     7
370
    25
100
AcDbLine
 10
378.6475686677
 20
-342.4831448938
 30
0.0
 11
378.9364875479
 21
-342.6332660235
 31
0.0
  0
LINE
  5
1AD
330
1F
100
AcDbEntity
  8
0
  6
Continuous
 62
     7
370
    25
100
AcDbLine
 10
480.0926082575
 20
-90.6999351361
 30
0.0
 11
479.9716089918
 21
-90.6269406455
 31
0.0
  0
LINE
  5
1AE
330
1F
100
AcDbEntity
  8
0
  6
Continuous
 62
     7
370
    25
100
AcDbLine
 10
468.9725029328
 20
-109.6800156179
 30
0.0
 11
469.2614218131
 21
-109.8301367476
 31
0.0
  0
LINE
  5
1AF
330
1F
100
AcDbEntity
  8
0
  6
Continuous
 62
     7
370
    25
100
AcDbLine
 10
375.7943580325
 20
-271.3498031362
 30
0.0
 11
375.6733587668
 21
-271.2768086456
 31
0.0
  0
LINE
  5
1B0
330
1F
100
AcDbEntity
  8
0
  6
Continuous
 62
     7
370
    25
100
AcDbLine
 10
364.6742527078
 20
-290.329883618
 30
0.0
 11
364.963171588
 21
-290.4800047476
 31
0.0
  0
LINE
  5
1B1
330
1F
100
AcDbEntity
  8
0
  6
Continuous
 62
     7
370
    25
100
AcDbLine
 10
427.943483145
 20
-136.9408537806
 30
0.0
 11
427.8224838793
 21
-136.8678592899
 31
0.0
  0
LINE
  5
1B2
330
1F
100
AcDbEntity
  8
0
  6
Continuous
 62
     7
370
    25
100
AcDbLine
 10
416.8233778203
 20
-155.9209342623
 30
0.0
 11
417.1122967006
 21
-156.071055392
 31
0.0
  0
LINE
  5
1B3
330
1F
100
AcDbEntity
  8
0
  6
Continuous
 62
     7
370
    25
100
AcDbLine
 10
389.7676739923
 20
-203.0632946589
 30
0.0
 11
389.6466747267
 21
-202.9903001683
 31
0.0
  0
LINE
  5
1B4
330
1F
100
AcDbEntity
  8
0
  6
Continuous
 62
     7
370
    25
100
AcDbLine
 10
378.6475686677
 20
-222.0433751406
 30
0.0
 11
378.9364875479
 21
-222.1934962703
 31
0.0
  0
LWPOLYLINE
  5
1B5
330
1F
100
AcDbEntity
  8
0
  6
Continuous
 62
     1
370
    25
100
AcDbPolyline
 90
       49
 70
   128
 43
0.0
 10
594.680208764
 20
-151.1985583799
 10
594.562552212
 20
-157.4065966457
 10
594.2098128741
 20
-163.7383257486
 10
593.6226812541
 20
-170.1813510315
 10
592.8023066899
 20
-176.7230599698
 10
591.750295103
 20
-183.3506468611
 10
590.4687058556
 20
-190.0511378928
 10
588.9600477188
 20
-196.8114165391
 10
587.2272739618
 20
-203.618249237
 10
585.2737765706
 20
-210.4583112919
 10
583.1033796081
 20
-217.3182129612
 10
580.7203317281
 20
-224.1845256651
 10
578.129297859
 20
-231.0438082741
 10
575.335350071
 20
-237.8826334204
 10
572.3439576484
 20
-244.6876137826
 10
569.160976382
 20
-251.4454282921
 10
565.7926371074
 20
-258.1428482096
 10
562.2455335068
 20
-264.7667630211
 10
558.526609202
 20
-271.3042061024
 10
554.643144162
 20
-277.7423801016
 10
550.6027404521
 20
-284.0686819907
 10
546.4133073522
 20
-290.2707277368
 10
542.0830458743
 20
-296.336376544
 10
537.6204327086
 20
-302.2537546199
 10
533.03420363
 20
-308.0112784191
 10
528.3333363973
 20
-313.5976773184
 10
523.5270331788
 20
-319.0020156796
 10
518.6247025387
 20
-324.2137142566
 10
513.6359410196
 20
-329.2225709046
 10
508.5705143564
 20
-334.0187805515
 10
503.4383383595
 20
-338.5929543918
 10
498.2494595046
 20
-342.9361382654
 10
493.0140352657
 20
-347.0398301857
 10
487.7423142316
 20
-350.8959969833
 10
482.4446160437
 20
-354.4970900305
 10
477.1313111951
 20
-357.8360600186
 10
471.8128007295
 20
-360.906370757
 10
466.4994958809
 20
-363.7020119683
 10
461.2017976931
 20
-366.2175110534
 10
455.9300766589
 20
-368.4479438049
 10
450.69465242
 20
-370.3889440459
 10
445.5057735652
 20
-372.0367121772
 10
440.3735975683
 20
-373.3880226154
 10
435.3081709051
 20
-374.4402301068
 10
430.3194093859
 20
-375.1912749058
 10
425.4170787459
 20
-375.639686807
 10
420.6107755274
 20
-375.784588023
 10
415.9099082947
 20
-375.6256949029
 10
412.4326702301
 20
-375.3042103671
  0
LWPOLYLINE
  5
1B6
330
1F
100
AcDbEntity
  8
0
  6
Continuous
 62
     1
370
    25
100
AcDbPolyline
 90
       14
 70
   128
 43
0.0
 10
577.5903406928
 20
-89.7244584543
 10
578.129297859
 20
-90.4625834643
 10
580.7203317281
 20
-94.3303220448
 10
583.1033796081
 20
-98.4452262319
 10
585.2737765706
 20
-102.7992409075
 10
587.2272739618
 20
-107.3838428834
 10
588.9600477188
 20
-112.1900575859
 10
590.4687058556
 20
-117.208476624
 10
591.750295103
 20
-122.4292762068
 10
592.8023066899
 20
-127.8422363739
 10
593.6226812541
 20
-133.4367610017
 10
594.2098128741
 20
-139.2018985454
 10
594.562552212
 20
-145.1263634776
 10
594.680208764
 20
-151.1985583799
  0
LWPOLYLINE
  5
1B7
330
1F
100
AcDbEntity
  8
0
  6
Continuous
 62
     1
370
    25
100
AcDbPolyline
 90
       14
 70
   128
 43
0.0
 10
612.3578782937
 20
-161.4036597777
 10
612.2402217417
 20
-155.3314648753
 10
611.8874824038
 20
-149.4069999432
 10
611.3003507838
 20
-143.6418623994
 10
610.4799762195
 20
-138.0473377717
 10
609.4279646326
 20
-132.6343776045
 10
608.1463753853
 20
-127.4135780217
 10
606.6377172485
 20
-122.3951589836
 10
604.9049434915
 20
-117.5889442812
 10
602.9514461003
 20
-113.0043423053
 10
600.7810491377
 20
-108.6503276297
 10
598.3980012578
 20
-104.5354234426
 10
595.8069673886
 20
-100.6676848621
 10
595.4206234182
 20
-100.1364440664
  0
LWPOLYLINE
  5
1B8
330
1F
100
AcDbEntity
  8
0
  6
Continuous
 62
     1
370
    25
100
AcDbPolyline
 90
       49
 70
   128
 43
0.0
 10
429.8923519597
 20
-385.4831137814
 10
433.5875778243
 20
-385.8307963007
 10
438.2884450571
 20
-385.9896894208
 10
443.0947482756
 20
-385.8447882048
 10
447.9970789156
 20
-385.3963763036
 10
452.9858404347
 20
-384.6453315046
 10
458.051267098
 20
-383.5931240132
 10
463.1834430948
 20
-382.241813575
 10
468.3723219497
 20
-380.5940454437
 10
473.6077461886
 20
-378.6530452027
 10
478.8794672227
 20
-376.4226124512
 10
484.1771654106
 20
-373.9071133661
 10
489.4904702592
 20
-371.1114721548
 10
494.8089807248
 20
-368.0411614164
 10
500.1222855734
 20
-364.7021914283
 10
505.4199837613
 20
-361.1010983811
 10
510.6917047954
 20
-357.2449315835
 10
515.9271290343
 20
-353.1412396631
 10
521.1160078892
 20
-348.7980557896
 10
526.248183886
 20
-344.2238819493
 10
531.3136105493
 20
-339.4276723024
 10
536.3023720684
 20
-334.4188156544
 10
541.2047027084
 20
-329.2071170774
 10
546.011005927
 20
-323.8027787162
 10
550.7118731597
 20
-318.2163798169
 10
555.2981022383
 20
-312.4588560177
 10
559.7607154039
 20
-306.5414779418
 10
564.0909768818
 20
-300.4758291346
 10
568.2804099818
 20
-294.2737833885
 10
572.3208136917
 20
-287.9474814994
 10
576.2042787317
 20
-281.5093075002
 10
579.9232030364
 20
-274.9718644189
 10
583.4703066371
 20
-268.3479496074
 10
586.8386459117
 20
-261.6505296899
 10
590.021627178
 20
-254.8927151804
 10
593.0130196007
 20
-248.0877348182
 10
595.8069673886
 20
-241.2489096719
 10
598.3980012578
 20
-234.3896270629
 10
600.7810491377
 20
-227.523314359
 10
602.9514461003
 20
-220.6634126897
 10
604.9049434915
 20
-213.8233506348
 10
606.6377172485
 20
-207.0165179369
 10
608.1463753853
 20
-200.2562392906
 10
609.4279646326
 20
-193.5557482589
 10
610.4799762195
 20
-186.9281613676
 10
611.3003507838
 20
-180.3864524293
 10
611.8874824038
 20
-173.9434271464
 10
612.2402217417
 20
-167.6116980435
 10
612.3578782937
 20
-161.4036597777
  0
LWPOLYLINE
  5
1B9
330
1F
100
AcDbEntity
  8
0
  6
Continuous
 62
     1
370
    25
100
AcDbPolyline
 90
       53
 70
   128
 43
0.0
 10
520.1592758571
 20
-114.0826534416
 10
518.5421019316
 20
-113.8175053093
 10
514.7309876958
 20
-113.4243895814
 10
510.805755144
 20
-113.3350556259
 10
506.7775307744
 20
-113.5497566695
 10
502.6577330265
 20
-114.0678841189
 10
498.4580399148
 20
-114.8879692855
 10
494.1903559255
 20
-116.0076875488
 10
489.8667782727
 20
-117.4238649458
 10
485.4995626069
 20
-119.1324871676
 10
481.1010882754
 20
-121.1287109391
 10
476.6838232316
 20
-123.406877747
 10
472.2602886931
 20
-125.96052988
 10
467.8430236493
 20
-128.7824287338
 10
463.4445493178
 20
-131.8645753293
 10
459.077333652
 20
-135.1982329872
 10
454.7537559992
 20
-138.7739520928
 10
450.4860720099
 20
-142.5815968816
 10
446.2863788981
 20
-146.6103741709
 10
442.1665811503
 20
-150.8488639537
 10
438.1383567807
 20
-155.2850517703
 10
434.2131242289
 20
-159.9063627642
 10
430.4020099931
 20
-164.6996973274
 10
426.7158170907
 20
-169.6514682324
 10
423.1649944359
 20
-174.7476391464
 10
419.7596072214
 20
-179.9737644193
 10
416.5093083871
 20
-185.3150300313
 10
413.4233112582
 20
-190.7562955846
 10
410.510363429
 20
-196.2821372209
 10
407.7787219664
 20
-201.8768913417
 10
405.2361300051
 20
-207.5246990086
 10
402.8897947981
 20
-213.2095508971
 10
400.7463672876
 20
-218.915332677
 10
398.8119232516
 20
-224.6258706898
 10
397.091946082
 20
-230.3249777952
 10
395.591311241
 20
-235.9964992547
 10
394.314272441
 20
-241.6243585248
 10
393.2644495872
 20
-247.1926028268
 10
392.4448185166
 20
-252.6854483673
 10
391.8577025625
 20
-258.0873250789
 10
391.5047659689
 20
-263.382920755
 10
391.3870091729
 20
-268.5572244544
 10
391.5047659689
 20
-273.5955690511
 10
391.8577025625
 20
-278.48367281
 10
392.4448185166
 20
-283.2076798698
 10
393.2644495872
 20
-287.7541995193
 10
394.314272441
 20
-292.1103441547
 10
395.591311241
 20
-296.2637658105
 10
397.091946082
 20
-300.202691162
 10
398.8119232516
 20
-303.9159548972
 10
400.7463672876
 20
-307.3930313666
 10
402.8897947981
 20
-310.6240644193
 10
403.6199909755
 20
-311.6060039662
  0
LWPOLYLINE
  5
1BA
330
1F
100
AcDbEntity
  8
0
  6
Continuous
 62
     1
370
    25
100
AcDbPolyline
 90
       52
 70
   128
 43
0.0
 10
422.1749468154
 20
-322.9223580083
 10
420.5674643278
 20
-320.8291658171
 10
418.4240368172
 20
-317.5981327644
 10
416.4895927813
 20
-314.121056295
 10
414.7696156117
 20
-310.4077925598
 10
413.2689807706
 20
-306.4688672083
 10
411.9919419706
 20
-302.3154455524
 10
410.9421191168
 20
-297.9593009171
 10
410.1224880463
 20
-293.4127812676
 10
409.5353720922
 20
-288.6887742078
 10
409.1824354986
 20
-283.8006704489
 10
409.0646787026
 20
-278.7623258522
 10
409.1824354986
 20
-273.5880221528
 10
409.5353720922
 20
-268.2924264767
 10
410.1224880463
 20
-262.8905497651
 10
410.9421191168
 20
-257.3977042246
 10
411.9919419706
 20
-251.8294599226
 10
413.2689807706
 20
-246.2016006525
 10
414.7696156117
 20
-240.5300791929
 10
416.4895927813
 20
-234.8309720876
 10
418.4240368172
 20
-229.1204340748
 10
420.5674643278
 20
-223.4146522949
 10
422.9137995348
 20
-217.7298004064
 10
425.4563914961
 20
-212.0819927395
 10
428.1880329586
 20
-206.4872386187
 10
431.1009807879
 20
-200.9613969824
 10
434.1869779167
 20
-195.520131429
 10
437.437276751
 20
-190.1788658171
 10
440.8426639656
 20
-184.9527405441
 10
444.3934866204
 20
-179.8565696301
 10
448.0796795228
 20
-174.9047987252
 10
451.8907937586
 20
-170.111464162
 10
455.8160263103
 20
-165.490153168
 10
459.8442506799
 20
-161.0539653515
 10
463.9640484278
 20
-156.8154755687
 10
468.1637415396
 20
-152.7866982794
 10
472.4314255288
 20
-148.9790534905
 10
476.7550031817
 20
-145.403334385
 10
481.1222188475
 20
-142.0696767271
 10
485.520693179
 20
-138.9875301315
 10
489.9379582228
 20
-136.1656312778
 10
494.3614927612
 20
-133.6119791448
 10
498.778757805
 20
-131.3338123369
 10
503.1772321365
 20
-129.3375885654
 10
507.5444478023
 20
-127.6289663436
 10
511.8680254552
 20
-126.2127889466
 10
516.1357094444
 20
-125.0930706833
 10
520.3354025562
 20
-124.2729855167
 10
524.4552003041
 20
-123.7548580673
 10
528.4834246737
 20
-123.5401570237
 10
532.4086572254
 20
-123.6294909792
 10
535.9523536248
 20
-123.9845810881
  0
LWPOLYLINE
  5
1BB
330
1F
100
AcDbEntity
  8
0
  6
Continuous
 62
     1
370
    25
100
AcDbPolyline
 90
       20
 70
   128
 43
0.0
 10
570.296543257
 20
-219.143120629
 10
569.7967044819
 20
-218.9028124455
 10
568.686077524
 20
-218.6459398582
 10
567.4572826166
 20
-218.6936328779
 10
566.1476560711
 20
-219.0444423764
 10
564.7969902275
 20
-219.6877091845
 10
563.4463243838
 20
-220.6038879658
 10
562.1366978383
 20
-221.7651410915
 10
560.9079029309
 20
-223.1361844732
 10
559.7972759731
 20
-224.6753596515
 10
558.8385628028
 20
-226.3358995673
 10
558.0608934348
 20
-228.0673495557
 10
557.4878969592
 20
-229.8171003849
 10
557.1369835839
 20
-231.5319867613
 10
557.0188156344
 20
-233.1599027303
 10
557.1369835839
 20
-234.6513848887
 10
557.4878969592
 20
-235.9611153061
 10
558.0608934348
 20
-237.0492984864
 10
558.8385628028
 20
-237.8828705343
 10
559.297437198
 20
-238.1961956014
  0
LWPOLYLINE
  5
1BC
330
1F
100
AcDbEntity
  8
0
  6
Continuous
 62
     1
370
    25
100
AcDbPolyline
 90
       20
 70
   128
 43
0.0
 10
532.1207341043
 20
-285.2655615074
 10
531.6208953292
 20
-285.0252533238
 10
530.5102683714
 20
-284.7683807365
 10
529.281473464
 20
-284.8160737563
 10
527.9718469185
 20
-285.1668832547
 10
526.6211810748
 20
-285.8101500628
 10
525.2705152312
 20
-286.7263288441
 10
523.9608886857
 20
-287.8875819699
 10
522.7320937783
 20
-289.2586253516
 10
521.6214668204
 20
-290.7978005298
 10
520.6627536502
 20
-292.4583404456
 10
519.8850842822
 20
-294.189790434
 10
519.3120878066
 20
-295.9395412632
 10
518.9611744313
 20
-297.6544276396
 10
518.8430064818
 20
-299.2823436086
 10
518.9611744313
 20
-300.7738257671
 10
519.3120878066
 20
-302.0835561845
 10
519.8850842822
 20
-303.1717393648
 10
520.6627536502
 20
-304.0053114127
 10
521.1216280453
 20
-304.3186364798
  0
LWPOLYLINE
  5
1BD
330
1F
100
AcDbEntity
  8
0
  6
Continuous
 62
     1
370
    25
100
AcDbPolyline
 90
       20
 70
   128
 43
0.0
 10
584.2698592169
 20
-150.8566121517
 10
583.7700204417
 20
-150.6163039681
 10
582.6593934839
 20
-150.3594313809
 10
581.4305985765
 20
-150.4071244006
 10
580.120972031
 20
-150.7579338991
 10
578.7703061874
 20
-151.4012007072
 10
577.4196403437
 20
-152.3173794884
 10
576.1100137982
 20
-153.4786326142
 10
574.8812188908
 20
-154.8496759959
 10
573.770591933
 20
-156.3888511741
 10
572.8118787627
 20
-158.04939109
 10
572.0342093947
 20
-159.7808410784
 10
571.4612129191
 20
-161.5305919075
 10
571.1102995438
 20
-163.245478284
 10
570.9921315943
 20
-164.8733942529
 10
571.1102995438
 20
-166.3648764114
 10
571.4612129191
 20
-167.6746068288
 10
572.0342093947
 20
-168.7627900091
 10
572.8118787627
 20
-169.596362057
 10
573.2707531579
 20
-169.9096871241
  0
LWPOLYLINE
  5
1BE
330
1F
100
AcDbEntity
  8
0
  6
Continuous
 62
     1
370
    25
100
AcDbPolyline
 90
       20
 70
   128
 43
0.0
 10
479.9716089918
 20
-331.5064801518
 10
479.4717702167
 20
-331.2661719682
 10
478.3611432589
 20
-331.009299381
 10
477.1323483515
 20
-331.0569924007
 10
475.822721806
 20
-331.4078018992
 10
474.4720559623
 20
-332.0510687073
 10
473.1213901187
 20
-332.9672474885
 10
471.8117635732
 20
-334.1285006143
 10
470.5829686658
 20
-335.499543996
 10
469.4723417079
 20
-337.0387191742
 10
468.5136285377
 20
-338.6992590901
 10
467.7359591697
 20
-340.4307090784
 10
467.1629626941
 20
-342.1804599076
 10
466.8120493188
 20
-343.8953462841
 10
466.6938813693
 20
-345.523262253
 10
466.8120493188
 20
-347.0147444115
 10
467.1629626941
 20
-348.3244748289
 10
467.7359591697
 20
-349.4126580092
 10
468.5136285377
 20
-350.2462300571
 10
468.9725029328
 20
-350.5595551242
  0
LWPOLYLINE
  5
1BF
330
1F
100
AcDbEntity
  8
0
  6
Continuous
 62
     1
370
    25
100
AcDbPolyline
 90
       20
 70
   128
 43
0.0
 10
570.296543257
 20
-98.7033508759
 10
569.7967044819
 20
-98.4630426923
 10
568.686077524
 20
-98.206170105
 10
567.4572826166
 20
-98.2538631248
 10
566.1476560711
 20
-98.6046726232
 10
564.7969902275
 20
-99.2479394313
 10
563.4463243838
 20
-100.1641182126
 10
562.1366978383
 20
-101.3253713384
 10
560.9079029309
 20
-102.6964147201
 10
559.7972759731
 20
-104.2355898983
 10
558.8385628029
 20
-105.8961298141
 10
558.0608934348
 20
-107.6275798025
 10
557.4878969592
 20
-109.3773306317
 10
557.1369835839
 20
-111.0922170082
 10
557.0188156344
 20
-112.7201329771
 10
557.1369835839
 20
-114.2116151356
 10
557.4878969592
 20
-115.521345553
 10
558.0608934348
 20
-116.6095287333
 10
558.8385628029
 20
-117.4431007812
 10
559.297437198
 20
-117.7564258483
  0
LWPOLYLINE
  5
1C0
330
1F
100
AcDbEntity
  8
0
  6
Continuous
 62
     1
370
    25
100
AcDbPolyline
 90
       20
 70
   128
 43
0.0
 10
427.8224838793
 20
-345.4756597543
 10
427.3226451042
 20
-345.2353515707
 10
426.2120181463
 20
-344.9784789835
 10
424.9832232389
 20
-345.0261720032
 10
423.6735966935
 20
-345.3769815017
 10
422.3229308498
 20
-346.0202483097
 10
420.9722650062
 20
-346.936427091
 10
419.6626384607
 20
-348.0976802168
 10
418.4338435533
 20
-349.4687235985
 10
417.3232165954
 20
-351.0078987767
 10
416.3645034252
 20
-352.6684386926
 10
415.5868340572
 20
-354.3998886809
 10
415.0138375815
 20
-356.1496395101
 10
414.6629242063
 20
-357.8645258866
 10
414.5447562568
 20
-359.4924418555
 10
414.6629242063
 20
-360.983924014
 10
415.0138375815
 20
-362.2936544314
 10
415.5868340572
 20
-363.3818376117
 10
416.3645034252
 20
-364.2154096596
 10
416.8233778203
 20
-364.5287347267
  0
LWPOLYLINE
  5
1C1
330
1F
100
AcDbEntity
  8
0
  6
Continuous
 62
     1
370
    25
100
AcDbPolyline
 90
       20
 70
   128
 43
0.0
 10
532.1207341043
 20
-76.657761043
 10
531.6208953292
 20
-76.4174528594
 10
530.5102683714
 20
-76.1605802722
 10
529.281473464
 20
-76.2082732919
 10
527.9718469185
 20
-76.5590827904
 10
526.6211810748
 20
-77.2023495985
 10
525.2705152312
 20
-78.1185283797
 10
523.9608886857
 20
-79.2797815055
 10
522.7320937783
 20
-80.6508248872
 10
521.6214668205
 20
-82.1900000654
 10
520.6627536502
 20
-83.8505399813
 10
519.8850842822
 20
-85.5819899696
 10
519.3120878066
 20
-87.3317407988
 10
518.9611744313
 20
-89.0466271753
 10
518.8430064818
 20
-90.6745431442
 10
518.9611744313
 20
-92.1660253027
 10
519.3120878066
 20
-93.4757557201
 10
519.8850842822
 20
-94.5639389004
 10
520.6627536502
 20
-95.3975109483
 10
521.1216280453
 20
-95.7108360154
  0
LWPOLYLINE
  5
1C2
330
1F
100
AcDbEntity
  8
0
  6
Continuous
 62
     1
370
    25
100
AcDbPolyline
 90
       20
 70
   128
 43
0.0
 10
389.6466747267
 20
-323.4300699214
 10
389.1468359516
 20
-323.1897617378
 10
388.0362089937
 20
-322.9328891506
 10
386.8074140863
 20
-322.9805821703
 10
385.4977875409
 20
-323.3313916688
 10
384.1471216972
 20
-323.9746584769
 10
382.7964558535
 20
-324.8908372581
 10
381.4868293081
 20
-326.0520903839
 10
380.2580344007
 20
-327.4231337656
 10
379.1474074428
 20
-328.9623089438
 10
378.1886942726
 20
-330.6228488597
 10
377.4110249045
 20
-332.3542988481
 10
376.8380284289
 20
-334.1040496772
 10
376.4871150537
 20
-335.8189360537
 10
376.3689471041
 20
-337.4468520226
 10
376.4871150537
 20
-338.9383341811
 10
376.8380284289
 20
-340.2480645985
 10
377.4110249045
 20
-341.3362477788
 10
378.1886942726
 20
-342.1698198267
 10
378.6475686677
 20
-342.4831448938
  0
LWPOLYLINE
  5
1C3
330
1F
100
AcDbEntity
  8
0
  6
Continuous
 62
     1
370
    25
100
AcDbPolyline
 90
       20
 70
   128
 43
0.0
 10
479.9716089918
 20
-90.6269406455
 10
479.4717702167
 20
-90.3866324619
 10
478.3611432589
 20
-90.1297598747
 10
477.1323483515
 20
-90.1774528944
 10
475.822721806
 20
-90.5282623929
 10
474.4720559623
 20
-91.1715292009
 10
473.1213901187
 20
-92.0877079822
 10
471.8117635732
 20
-93.248961108
 10
470.5829686658
 20
-94.6200044897
 10
469.4723417079
 20
-96.1591796679
 10
468.5136285377
 20
-97.8197195838
 10
467.7359591697
 20
-99.5511695721
 10
467.1629626941
 20
-101.3009204013
 10
466.8120493188
 20
-103.0158067778
 10
466.6938813693
 20
-104.6437227467
 10
466.8120493188
 20
-106.1352049052
 10
467.1629626941
 20
-107.4449353226
 10
467.7359591697
 20
-108.5331185029
 10
468.5136285377
 20
-109.3666905508
 10
468.9725029328
 20
-109.6800156179
  0
LWPOLYLINE
  5
1C4
330
1F
100
AcDbEntity
  8
0
  6
Continuous
 62
     1
370
    25
100
AcDbPolyline
 90
       20
 70
   128
 43
0.0
 10
375.6733587668
 20
-271.2768086456
 10
375.1735199917
 20
-271.036500462
 10
374.0628930338
 20
-270.7796278747
 10
372.8340981264
 20
-270.8273208945
 10
371.524471581
 20
-271.1781303929
 10
370.1738057373
 20
-271.821397201
 10
368.8231398937
 20
-272.7375759823
 10
367.5135133482
 20
-273.8988291081
 10
366.2847184408
 20
-275.2698724898
 10
365.1740914829
 20
-276.809047668
 10
364.2153783127
 20
-278.4695875838
 10
363.4377089447
 20
-280.2010375722
 10
362.864712469
 20
-281.9507884014
 10
362.5137990938
 20
-283.6656747778
 10
362.3956311443
 20
-285.2935907468
 10
362.5137990938
 20
-286.7850729053
 10
362.864712469
 20
-288.0948033227
 10
363.4377089447
 20
-289.182986503
 10
364.2153783127
 20
-290.0165585509
 10
364.6742527078
 20
-290.329883618
  0
LWPOLYLINE
  5
1C5
330
1F
100
AcDbEntity
  8
0
  6
Continuous
 62
     1
370
    25
100
AcDbPolyline
 90
       20
 70
   128
 43
0.0
 10
427.8224838793
 20
-136.8678592899
 10
427.3226451042
 20
-136.6275511063
 10
426.2120181464
 20
-136.3706785191
 10
424.983223239
 20
-136.4183715388
 10
423.6735966935
 20
-136.7691810373
 10
422.3229308498
 20
-137.4124478454
 10
420.9722650062
 20
-138.3286266266
 10
419.6626384607
 20
-139.4898797524
 10
418.4338435533
 20
-140.8609231341
 10
417.3232165954
 20
-142.4000983123
 10
416.3645034252
 20
-144.0606382282
 10
415.5868340572
 20
-145.7920882166
 10
415.0138375816
 20
-147.5418390457
 10
414.6629242063
 20
-149.2567254222
 10
414.5447562568
 20
-150.8846413911
 10
414.6629242063
 20
-152.3761235496
 10
415.0138375816
 20
-153.685853967
 10
415.5868340572
 20
-154.7740371473
 10
416.3645034252
 20
-155.6076091952
 10
416.8233778203
 20
-155.9209342623
  0
LWPOLYLINE
  5
1C6
330
1F
100
AcDbEntity
  8
0
  6
Continuous
 62
     1
370
    25
100
AcDbPolyline
 90
       20
 70
   128
 43
0.0
 10
389.6466747267
 20
-202.9903001683
 10
389.1468359516
 20
-202.7499919847
 10
388.0362089937
 20
-202.4931193974
 10
386.8074140863
 20
-202.5408124172
 10
385.4977875409
 20
-202.8916219156
 10
384.1471216972
 20
-203.5348887237
 10
382.7964558535
 20
-204.451067505
 10
381.4868293081
 20
-205.6123206308
 10
380.2580344007
 20
-206.9833640125
 10
379.1474074428
 20
-208.5225391907
 10
378.1886942726
 20
-210.1830791065
 10
377.4110249045
 20
-211.9145290949
 10
376.8380284289
 20
-213.6642799241
 10
376.4871150537
 20
-215.3791663005
 10
376.3689471041
 20
-217.0070822695
 10
376.4871150537
 20
-218.498564428
 10
376.8380284289
 20
-219.8082948454
 10
377.4110249045
 20
-220.8964780256
 10
378.1886942726
 20
-221.7300500736
 10
378.6475686677
 20
-222.0433751406
  0
ENDSEC
  0
SECTION
  2
OBJECTS
  0
DICTIONARY
  5
C
330
0
100
AcDbDictionary
281
     1
  3
ACAD_GROUP
350
D
  3
ACAD_LAYOUT
350
1A
  3
ACAD_MLINESTYLE
350
17
  3
ACAD_PLOTSETTINGS
350
19
  3
ACAD_PLOTSTYLENAME
350
E
  3
ACAD_SCALELIST
350
47
  3
DWGPROPS
350
1C7
  0
DICTIONARY
  5
D
102
{ACAD_REACTORS
330
C
102
}
330
C
100
AcDbDictionary
281
     1
  0
DICTIONARY
  5
1A
102
{ACAD_REACTORS
330
C
102
}
330
C
100
AcDbDictionary
281
     1
  3
Layout1
350
1E
  3
Layout2
350
26
  3
Model
350
22
  0
DICTIONARY
  5
17
102
{ACAD_REACTORS
330
C
102
}
330
C
100
AcDbDictionary
281
     1
  3
Standard
350
18
  0
DICTIONARY
  5
19
102
{ACAD_REACTORS
330
C
102
}
330
C
100
AcDbDictionary
281
     1
  0
ACDBDICTIONARYWDFLT
  5
E
102
{ACAD_REACTORS
330
C
102
}
330
C
100
AcDbDictionary
281
     1
  3
Normal
350
F
100
AcDbDictionaryWithDefault
340
F
  0
DICTIONARY
  5
47
102
{ACAD_REACTORS
330
C
102
}
330
C
100
AcDbDictionary
281
     1
  3
A0
350
48
  3
A1
350
49
  3
A2
350
4A
  3
A3
350
4B
  3
A4
350
4C
  3
A5
350
4D
  3
A6
350
4E
  3
A7
350
4F
  3
A8
350
50
  3
A9
350
51
  3
B0
350
52
  3
B1
350
53
  3
B2
350
54
  3
B3
350
55
  3
B4
350
56
  3
B5
350
57
  3
B6
350
58
  3
B7
350
59
  3
B8
350
5A
  3
B9
350
5B
  3
C0
350
5C
  3
C1
350
5D
  3
C2
350
5E
  3
C3
350
5F
  3
C4
350
60
  3
C5
350
61
  3
C6
350
62
  3
C7
350
63
  3
C8
350
64
  3
C9
350
65
  3
D0
350
66
  3
D1
350
67
  3
D2
350
68
  0
XRECORD
  5
1C7
102
{ACAD_REACTORS
330
C
102
}
330
C
100
AcDbXrecord
280
     1
  1
DWGPROPS COOKIE
  2

  3

  4

  6

  7

  8
b.kav
  9

300
=
301
=
302
=
303
=
304
=
305
=
306
=
307
=
308
=
309
=
 40
0.0
 41
2459741.467511771
 42
2459741.467514097
  1

 90
        0
  0
LAYOUT
  5
1E
102
{ACAD_REACTORS
330
1A
102
}
330
1A
100
AcDbPlotSettings
  1

  2
none_device
  4

  6

 40
0.0
 41
0.0
 42
0.0
 43
0.0
 44
0.0
 45
0.0
 46
0.0
 47
0.0
 48
0.0
 49
0.0
140
0.0
141
0.0
142
1.0
143
1.0
 70
   688
 72
     1
 73
     0
 74
     5
  7

 75
    16
147
1.0
148
0.0
149
0.0
100
AcDbLayout
  1
Layout1
 70
     1
 71
     1
 10
0.0
 20
0.0
 11
420.0
 21
297.0
 12
0.0
 22
0.0
 32
0.0
 14
1.0000000000E+20
 24
1.0000000000E+20
 34
1.0000000000E+20
 15
-1.0000000000E+20
 25
-1.0000000000E+20
 35
-1.0000000000E+20
146
0.0
 13
0.0
 23
0.0
 33
0.0
 16
1.0
 26
0.0
 36
0.0
 17
0.0
 27
1.0
 37
0.0
 76
     0
330
1B
  0
LAYOUT
  5
26
102
{ACAD_REACTORS
330
1A
102
}
330
1A
100
AcDbPlotSettings
  1

  2
none_device
  4

  6

 40
0.0
 41
0.0
 42
0.0
 43
0.0
 44
0.0
 45
0.0
 46
0.0
 47
0.0
 48
0.0
 49
0.0
140
0.0
141
0.0
142
1.0
143
1.0
 70
   688
 72
     1
 73
     0
 74
     5
  7

 75
    16
147
1.0
148
0.0
149
0.0
100
AcDbLayout
  1
Layout2
 70
     1
 71
     2
 10
0.0
 20
0.0
 11
0.0
 21
0.0
 12
0.0
 22
0.0
 32
0.0
 14
0.0
 24
0.0
 34
0.0
 15
0.0
 25
0.0
 35
0.0
146
0.0
 13
0.0
 23
0.0
 33
0.0
 16
1.0
 26
0.0
 36
0.0
 17
0.0
 27
1.0
 37
0.0
 76
     0
330
23
  0
LAYOUT
  5
22
102
{ACAD_REACTORS
330
1A
102
}
330
1A
100
AcDbPlotSettings
  1

  2
none_device
  4
Letter_(8.50_x_11.00_Inches)
  6

 40
6.35
 41
6.35
 42
6.35000508
 43
6.35000508
 44
215.9
 45
279.4
 46
0.0
 47
0.0
 48
0.0
 49
0.0
140
0.0
141
0.0
142
1.0
143
1.0
 70
  1712
 72
     1
 73
     0
 74
     0
  7

 75
     0
147
1.0
148
0.0
149
0.0
100
AcDbLayout
  1
Model
 70
     1
 71
     0
 10
0.0
 20
0.0
 11
279.4
 21
215.9
 12
0.0
 22
0.0
 32
0.0
 14
0.0
 24
0.0
 34
0.0
 15
279.4
 25
215.9
 35
0.0
146
0.0
 13
0.0
 23
0.0
 33
0.0
 16
1.0
 26
0.0
 36
0.0
 17
0.0
 27
1.0
 37
0.0
 76
     0
330
1F
331
29
  0
MLINESTYLE
  5
18
102
{ACAD_REACTORS
330
17
102
}
330
17
100
AcDbMlineStyle
  2
Standard
 70
     0
  3

 62
   256
 51
90.0
 52
90.0
 71
     2
 49
0.5
 62
   256
  6
BYLAYER
 49
-0.5
 62
   256
  6
BYLAYER
  0
ACDBPLACEHOLDER
  5
F
102
{ACAD_REACTORS
330
E
102
}
330
E
  0
SCALE
  5
48
102
{ACAD_REACTORS
330
47
102
}
330
47
100
AcDbScale
 70
     0
300
1:1
140
1.0
141
1.0
290
     1
  0
SCALE
  5
49
102
{ACAD_REACTORS
330
47
102
}
330
47
100
AcDbScale
 70
     0
300
1:2
140
1.0
141
2.0
290
     0
  0
SCALE
  5
4A
102
{ACAD_REACTORS
330
47
102
}
330
47
100
AcDbScale
 70
     0
300
1:4
140
1.0
141
4.0
290
     0
  0
SCALE
  5
4B
102
{ACAD_REACTORS
330
47
102
}
330
47
100
AcDbScale
 70
     0
300
1:5
140
1.0
141
5.0
290
     0
  0
SCALE
  5
4C
102
{ACAD_REACTORS
330
47
102
}
330
47
100
AcDbScale
 70
     0
300
1:8
140
1.0
141
8.0
290
     0
  0
SCALE
  5
4D
102
{ACAD_REACTORS
330
47
102
}
330
47
100
AcDbScale
 70
     0
300
1:10
140
1.0
141
10.0
290
     0
  0
SCALE
  5
4E
102
{ACAD_REACTORS
330
47
102
}
330
47
100
AcDbScale
 70
     0
300
1:16
140
1.0
141
16.0
290
     0
  0
SCALE
  5
4F
102
{ACAD_REACTORS
330
47
102
}
330
47
100
AcDbScale
 70
     0
300
1:20
140
1.0
141
20.0
290
     0
  0
SCALE
  5
50
102
{ACAD_REACTORS
330
47
102
}
330
47
100
AcDbScale
 70
     0
300
1:30
140
1.0
141
30.0
290
     0
  0
SCALE
  5
51
102
{ACAD_REACTORS
330
47
102
}
330
47
100
AcDbScale
 70
     0
300
1:40
140
1.0
141
40.0
290
     0
  0
SCALE
  5
52
102
{ACAD_REACTORS
330
47
102
}
330
47
100
AcDbScale
 70
     0
300
1:50
140
1.0
141
50.0
290
     0
  0
SCALE
  5
53
102
{ACAD_REACTORS
330
47
102
}
330
47
100
AcDbScale
 70
     0
300
1:100
140
1.0
141
100.0
290
     0
  0
SCALE
  5
54
102
{ACAD_REACTORS
330
47
102
}
330
47
100
AcDbScale
 70
     0
300
2:1
140
2.0
141
1.0
290
     0
  0
SCALE
  5
55
102
{ACAD_REACTORS
330
47
102
}
330
47
100
AcDbScale
 70
     0
300
4:1
140
4.0
141
1.0
290
     0
  0
SCALE
  5
56
102
{ACAD_REACTORS
330
47
102
}
330
47
100
AcDbScale
 70
     0
300
8:1
140
8.0
141
1.0
290
     0
  0
SCALE
  5
57
102
{ACAD_REACTORS
330
47
102
}
330
47
100
AcDbScale
 70
     0
300
10:1
140
10.0
141
1.0
290
     0
  0
SCALE
  5
58
102
{ACAD_REACTORS
330
47
102
}
330
47
100
AcDbScale
 70
     0
300
100:1
140
100.0
141
1.0
290
     0
  0
SCALE
  5
59
102
{ACAD_REACTORS
330
47
102
}
330
47
100
AcDbScale
 70
     0
300
1/128" = 1'-0"
140
0.0078125
141
12.0
290
     0
  0
SCALE
  5
5A
102
{ACAD_REACTORS
330
47
102
}
330
47
100
AcDbScale
 70
     0
300
1/64" = 1'-0"
140
0.015625
141
12.0
290
     0
  0
SCALE
  5
5B
102
{ACAD_REACTORS
330
47
102
}
330
47
100
AcDbScale
 70
     0
300
1/32" = 1'-0"
140
0.03125
141
12.0
290
     0
  0
SCALE
  5
5C
102
{ACAD_REACTORS
330
47
102
}
330
47
100
AcDbScale
 70
     0
300
1/16" = 1'-0"
140
0.0625
141
12.0
290
     0
  0
SCALE
  5
5D
102
{ACAD_REACTORS
330
47
102
}
330
47
100
AcDbScale
 70
     0
300
3/32" = 1'-0"
140
0.09375
141
12.0
290
     0
  0
SCALE
  5
5E
102
{ACAD_REACTORS
330
47
102
}
330
47
100
AcDbScale
 70
     0
300
1/8" = 1'-0"
140
0.125
141
12.0
290
     0
  0
SCALE
  5
5F
102
{ACAD_REACTORS
330
47
102
}
330
47
100
AcDbScale
 70
     0
300
3/16" = 1'-0"
140
0.1875
141
12.0
290
     0
  0
SCALE
  5
60
102
{ACAD_REACTORS
330
47
102
}
330
47
100
AcDbScale
 70
     0
300
1/4" = 1'-0"
140
0.25
141
12.0
290
     0
  0
SCALE
  5
61
102
{ACAD_REACTORS
330
47
102
}
330
47
100
AcDbScale
 70
     0
300
3/8" = 1'-0"
140
0.375
141
12.0
290
     0
  0
SCALE
  5
62
102
{ACAD_REACTORS
330
47
102
}
330
47
100
AcDbScale
 70
     0
300
1/2" = 1'-0"
140
0.5
141
12.0
290
     0
  0
SCALE
  5
63
102
{ACAD_REACTORS
330
47
102
}
330
47
100
AcDbScale
 70
     0
300
3/4" = 1'-0"
140
0.75
141
12.0
290
     0
  0
SCALE
  5
64
102
{ACAD_REACTORS
330
47
102
}
330
47
100
AcDbScale
 70
     0
300
1" = 1'-0"
140
1.0
141
12.0
290
     0
  0
SCALE
  5
65
102
{ACAD_REACTORS
330
47
102
}
330
47
100
AcDbScale
 70
     0
300
1-1/2" = 1'-0"
140
1.5
141
12.0
290
     0
  0
SCALE
  5
66
102
{ACAD_REACTORS
330
47
102
}
330
47
100
AcDbScale
 70
     0
300
3" = 1'-0"
140
3.0
141
12.0
290
     0
  0
SCALE
  5
67
102
{ACAD_REACTORS
330
47
102
}
330
47
100
AcDbScale
 70
     0
300
6" = 1'-0"
140
6.0
141
12.0
290
     0
  0
SCALE
  5
68
102
{ACAD_REACTORS
330
47
102
}
330
47
100
AcDbScale
 70
     0
300
1'-0" = 1'-0"
140
12.0
141
12.0
290
     0
  0
ENDSEC
  0
EOF
